Song name
# A B C D E F G H I J K L M N O P Q R S T U V W X Y Z

Jonathan Coulton - Want You Gone tab

Want You Gone

Portal 2

Jonathan Coulton

tabbed by doctor gwaihir

Tuning: Standard tuning

The upper tab is instrumental.  In the chorus I have included chords and bass together.  
These may need to be played separately. An alternative set of chords is given in the 
middle tab.

The lower tab is the sung melody. This is basic so you may want to include ornaments, 
and refine the precise timing which is often slightly off the beat.

This is a guide based on how I have heard the song, so you may well want to change it to 
suit you, for example by adjusting positions or octaves or adding a capo.

Have fun!





e|----------------|----------------|----------------|----------------|
B|----------------|----------------|----------------|----------------|
G|----------------|----------------|----------------|----------------|
D|-----2-------2--|-----1----------|-----0-------0--|-----3----------|
A|-0-------0------|-0--------------|-0-------0------|-0--------------|
E|----------------|----------------|----------------|----------------|




e|----------------|----------------|----------------|----------------|
B|----------------|----------------|----------------|----------------|
G|----------------|----------------|----------------|----------------|
D|-----2-------2--|-----1----------|-----0-------0--|-----3----------|
A|-0-------0------|-0--------------|-0-------0------|-0--------------|
E|----------------|----------------|----------------|----------------|
 |                                                                   |
e|----------------|----------------|----------------|----------------|
B|----------------|-2-3-2----------|----------------|----------------|
G|---------2---4--|----------------|-----2---2------|-4---2---1---2--|
D|-----2----------|----------------|-------------2--|----------------|
A|----------------|----------------|----------------|----------------|
E|----------------|----------------|----------------|----------------|

    Well,  here we are again		   It's always  such a pleasure


e|----------------|----------------|----------------|----------------|
B|----------------|----------------|----------------|----------------|
G|----------------|----------------|----------------|----------------|
D|-----2-------2--|-----1----------|-----0-------0--|----------------|
A|-0-------0------|-0--------------|-0-------0------|-------------2--|
E|----------------|----------------|----------------|-0-0-0-0-2-4----|
 |                                                                   |
e|----------------|----------------|----------------|----------------|
B|----------------|-2---3---2------|----------------|----------------|
G|---------2---4--|-------------4--|-2-------4----1-|----------------|
D|-----2----------|----------------|----------------|----------------|
A|----------------|----------------|----------------|----------------|
E|----------------|----------------|----------------|----------------|
         Remember  when you tried to kill    me twice


e|----------------|----------------|----------------|----------------|
B|----------------|----------------|----------------|----------------|
G|----------------|----------------|----------------|----------------|
D|-----2-------2--|-----1----------|-----0-------0--|-----3----------|
A|-0-------0------|-0--------------|-0-------0------|-0--------------|
E|----------------|----------------|----------------|----------------|
 |                                                                   |
e|----------------|----------------|----------------|----------------|
B|----------------|-2---3---2------|----------------|----------------|
G|---------2---4--|----------------|-----2---2------|-4-2-----1---2--|
D|-----2----------|----------------|-------------2--|----------------|
A|----------------|----------------|----------------|----------------|
E|----------------|----------------|----------------|----------------|

       Oh how we laughed and laughed    Except I Wasn't laughing


e|----------------|----------------|----------------|----------------|
B|----------------|----------------|----------------|----------------|
G|----------------|----------------|----------------|----------------|
D|-----2-------2--|-----1----------|-----0-------0--|----------------|
A|-0-------0------|-0--------------|-0-------0------|-----4-------4--|
E|----------------|----------------|----------------|-4------4-------|
 |                                                                   |
e|----------------|----------------|---------2------|-1--------------|
B|----------------|-2---3---2------|----------------|-----2----------|
G|---------2---4--|-------------4--|-2--------------|---------4---3--|
D|-----2----------|----------------|----------------|----------------|
A|----------------|----------------|----------------|----------------|
E|----------------|----------------|----------------|----------------|

        Under the  circumstances    I've     been    shockingly    nice




e|-2-------2------|-2-------2------|-2-------2------|-2-------2------|
B|-2-------2------|-2-------2------|-2-------2------|-4-------4------|
G|----------------|----------------|----------------|----------------|
D|----------------|----------------|----------------|---------1---3--|
A|----------------|----------------|-1-----------1--|-2---4----------|
E|-2-----------2--|-4-----------4--|----------------|----------------|
 |                                                                   |
e|----------------|----------------|----------------|----------------|
B|----------------|----------------|----------------|----------------|
G|-3-------3------|-4-------4------|-6-------6------|-8------8-------|
D|-4-------4------|-4-------4------|-4-------4------|-9------9-------|
A|-4-------4------|-4-------4------|-4-------4------|-9------9-------|
E|-2-------2------|-4-------4------|-6-------6------|-7------7-------|
 |                                                                   |
e|----------------|----------------|---------6------|-4-------2------|
B|----------------|-----------2----|-2--------------|----------------|
G|----------------|-3----4---------|----------------|----------------|
D|----------------|----------------|----------------|----------------|
A|----------------|----------------|----------------|----------------|
E|----------------|----------------|----------------|----------------|

                   You want your    free-   dom?     Take     it


e|-2-------2------|-2-------2------|-2-------2------|-2-------2------|
B|-2-------2------|-2-------2------|-2-------2------|-4-------4------|
G|----------------|----------------|----------------|----------------|
D|-4\-------------|----------------|----------------|---------1---3--|
A|----------------|----------------|-1-----------1--|-2---4----------|
E|---------2------|-4-----------4--|----------------|----------------|
 |                                                                   |
e|----------------|----------------|----------------|----------------|
B|----------------|----------------|----------------|----------------|
G|-3-------3------|-4-------4------|-6-------6------|-8------8-------|
D|-4-------4------|-4-------4------|-4-------4------|-9------9-------|
A|-4-------4------|-4-------4------|-4-------4------|-9------9-------|
E|-2-------2------|-4-------4------|-6-------6------|-7------7-------|
 |                                                                   |
e|----------------|----------------|----------------|----------------|
B|----------------|----------------|----------------|----------------|
G|----------------|-4----3---------|-4----3---------|----------------|
D|----------------|-----------4----|-----------4----|----------------|
A|----------------|----------------|----------------|----------------|
E|----------------|----------------|----------------|----------------|

                   That's what I'm  counting  on


e|-2-------2------|-2-------2------|-2-------2------|-2-------2------|
B|-2-------2------|-2-------2------|-2-------2------|-4-------4------|
G|----------------|----------------|----------------|----------------|
D|-4\-------------|----------------|----------------|----------------|
A|----------------|----------------|-1-----------1--|-2-----------2--|
E|-------------2--|-4-----------4--|----------------|----------------|
 |                                                                   |
e|----------------|----------------|----------------|----------------|
B|----------------|----------------|----------------|----------------|
G|-3-------3------|-4-------4------|-6-------6------|-8------8-------|
D|-4-------4------|-4-------4------|-4-------4------|-9------9-------|
A|-4-------4------|-4-------4------|-4-------4------|-9------9-------|
E|-2-------2------|-4-------4------|-6-------6------|-7------7-------|
 |                                                                   |
e|----------------|----------------|---------6------|-4-------2------|
B|----------------|-----------2----|-2--------------|----------------|
G|----------------|-3----4---------|----------------|----------------|
D|----------------|----------------|----------------|----------------|
A|----------------|----------------|----------------|----------------|
E|----------------|----------------|----------------|----------------|

                    I  used   to    want     You     dead     but


e|-2-------2------|-0--------------|
B|-3-------3------|-0-------3------|
G|----------------|---------4------|
D|----------------|----------------|
A|-2-----------2--|-------------0--|
E|----------------|-0---2---4------|
 |                                 |
e|----------------|----------------|
B|----------------|----------------|
G|-7-------7------|-9-------7------|
D|-9-------9------|-9-------9------|
A|-9-------9------|-7-------7------|
E|-7-------7------|----------------|
 |                                 |
e|-2-----2-2---2--|-0--------------|
B|----------------|---------3------|
G|----------------|----------------|
D|----------------|----------------|
A|----------------|----------------|
E|----------------|----------------|

  Now   i  only    want    you


e|----------------|----------------|----------------|----------------|
B|----------------|----------------|----------------|----------------|
G|----------------|----------------|----------------|----------------|
D|-----2-------2--|-----1----------|-----0-------0--|-----3----------|
A|-0-------0------|-0--------------|-0-------0------|-0--------------|
E|----------------|----------------|----------------|----------------|
 |                                                                   |
e|----------------|----------------|----------------|----------------|
B|-2---0----------|----------------|----------------|----------------|
G|---------2------|----------------|----------------|----------------|
D|----------------|----------------|----------------|----------------|
A|----------------|----------------|----------------|----------------|
E|----------------|----------------|----------------|----------------|

  gone


e|----------------|----------------|----------------|----------------|
B|----------------|----------------|----------------|----------------|
G|----------------|----------------|----------------|----------------|
D|-----2-------2--|-----1----------|-----0-------0--|-----3----------|
A|-0-------0------|-0--------------|-0-------0------|-0--------------|
E|----------------|----------------|----------------|----------------|
 |                                                                   |
e|----------------|----------------|----------------|----------------|
B|----------------|-2-3-2----------|----------------|----------------|
G|---------2---4--|----------------|-----2---2------|-4---2---1---2--|
D|-----2----------|----------------|-------------2--|----------------|
A|----------------|----------------|----------------|----------------|
E|----------------|----------------|----------------|----------------|

       She was a    lot like you         (Maybe not   quite as heavy)



e|----------------|----------------|----------------|----------------|
B|----------------|----------------|----------------|----------------|
G|----------------|----------------|----------------|----------------|
D|-----2-------2--|-----1----------|-----0-------0--|----------------|
A|-0-------0------|-0--------------|-0-------0------|-------------2--|
E|----------------|----------------|----------------|-0-0-0-0-2-4----|
 |                                                                   |
e|----------------|----------------|----------------|----------------|
B|----------------|-2---3---2------|----------------|----------------|
G|---------2---4--|-------------4--|-2-------4----1-|----------------|
D|-----2----------|----------------|----------------|----------------|
A|----------------|----------------|----------------|----------------|
E|----------------|----------------|----------------|----------------|

       Now little   Caroline is      in      here    too


e|----------------|----------------|----------------|----------------|
B|----------------|----------------|----------------|----------------|
G|----------------|----------------|----------------|----------------|
D|-----2-------2--|-----1----------|-----0-------0--|-----3----------|
A|-0-------0------|-0--------------|-0-------0------|-0--------------|
E|----------------|----------------|----------------|----------------|
 |                                                                   |
e|----------------|----------------|----------------|----------------|
B|----------------|-2-3-2----------|----------------|----------------|
G|---------2---4--|----------------|-----2---2------|-4---2---1---2--|
D|-----2----------|----------------|-------------2--|----------------|
A|----------------|----------------|----------------|----------------|
E|----------------|----------------|----------------|----------------|

       One day they woke me up            So I could live forever


e|----------------|----------------|----------------|----------------|
B|----------------|----------------|----------------|----------------|
G|----------------|----------------|----------------|----------------|
D|-----2-------2--|-----1----------|-----0-------0--|----------------|
A|-0-------0------|-0--------------|-0-------0------|-----4-------4--|
E|----------------|----------------|----------------|-4------4-------|
 |                                                                   |
e|----------------|----------------|---------2------|-1--------------|
B|----------------|-2---3---2------|----------------|-----2----------|
G|---------2---4--|-------------4--|-2--------------|---------4---3--|
D|-----2----------|----------------|----------------|----------------|
A|----------------|----------------|----------------|----------------|
E|----------------|----------------|----------------|----------------|

      It's such a shame the same will ne-   ver      happen  to you


E|-2-------2------|-2-------2------|-2-------2------|-2-------2------|
B|-2-------2------|-2-------2------|-2-------2------|-4-------4------|
G|----------------|----------------|----------------|----------------|
D|----------------|----------------|----------------|---------1---3--|
A|----------------|----------------|-1-----------1--|-2---4----------|
E|-2-----------2--|-4-----------4--|----------------|----------------|
 |                                                                   |
e|----------------|----------------|----------------|----------------|
B|----------------|----------------|----------------|----------------|
G|-3-------3------|-4-------4------|-6-------6------|-8------8-------|
D|-4-------4------|-4-------4------|-4-------4------|-9------9-------|
A|-4-------4------|-4-------4------|-4-------4------|-9------9-------|
E|-2-------2------|-4-------4------|-6-------6------|-7------7-------|
 |                                                                   |
e|----------------|----------------|---------6------|-4-------2------|
B|----------------|-----------2----|-2--------------|----------------|
G|----------------|-3----4---------|----------------|----------------|
D|----------------|----------------|----------------|----------------|
A|----------------|----------------|----------------|----------------|
E|----------------|----------------|----------------|----------------|

  			You've got your short sad   life   left


e|-2-------2------|-2-------2------|-2-------2------|-2-------2------|
B|-2-------2------|-2-------2------|-2-------2------|-4-------4------|
G|----------------|----------------|----------------|----------------|
D|-4\-------------|----------------|----------------|---------1---3--|
A|----------------|----------------|-1-----------1--|-2---4----------|
E|---------2------|-4-----------4--|----------------|----------------|
 |                                                                   |
e|----------------|----------------|----------------|----------------|
B|----------------|----------------|----------------|----------------|
G|-3-------3------|-4-------4------|-6-------6------|-8------8-------|
D|-4-------4------|-4-------4------|-4-------4------|-9------9-------|
A|-4-------4------|-4-------4------|-4-------4------|-9------9-------|
E|-2-------2------|-4-------4------|-6-------6------|-7------7-------|
 |                                                                   |
e|----------------|----------------|----------------|----------------|
B|----------------|-4----2---------|-4----2---------|----------------|
G|----------------|-4----3----3----|-4----3----3----|----------------|
D|----------------|-----------4----|-----------4----|----------------|
A|----------------|----------------|----------------|----------------|
E|----------------|----------------|----------------|----------------|

                   That's what I'm counting on


e|-2-------2------|-2-------2------|-2-------2------|-2-------2------|
B|-2-------2------|-2-------2------|-2-------2------|-4-------4------|
G|----------------|----------------|----------------|----------------|
D|-4\-------------|----------------|----------------|----------------|
A|----------------|----------------|-1-----------1--|-2-----------2--|
E|-------------2--|-4-----------4--|----------------|----------------|
 |                                                                   |
e|----------------|----------------|----------------|----------------|
B|----------------|----------------|----------------|----------------|
G|-3-------3------|-4-------4------|-6-------6------|-8------8-------|
D|-4-------4------|-4-------4------|-4-------4------|-9------9-------|
A|-4-------4------|-4-------4------|-4-------4------|-9------9-------|
E|-2-------2------|-4-------4------|-6-------6------|-7------7-------|
 |                                                                   |
e|----------------|----------------|---------6------|-4-------2------|
B|----------------|-----------2----|-2--------------|----------------|
G|----------------|-3----4---------|----------------|----------------|
D|----------------|----------------|----------------|----------------|
A|----------------|----------------|----------------|----------------|
E|----------------|----------------|----------------|----------------|

                   I'll let you    get       right    to      it



e|-2-------2------|-0--------------|
B|-3-------3------|-0-------3------|
G|----------------|---------4------|
D|----------------|----------------|
A|-2-----------2--|-------------0--|
E|----------------|-0---2---4------|
 |                                 |
e|----------------|----------------|
B|----------------|----------------|
G|-7-------7------|-9-------7------|
D|-9-------9------|-9-------9------|
A|-9-------9------|-7-------7------|
E|-7-------7------|----------------|
 |                                 |
e|-2-----2-2---2--|-0--------------|
B|----------------|---------3------|
G|----------------|----------------|
D|----------------|----------------|
A|----------------|----------------|
E|----------------|----------------|

  Now  i   only    want    you


E|----------------|----------------|----------------|----------------|
B|----------------|----------------|----------------|----------------|
G|----------------|----------------|----------------|----------------|
D|-----2-------2--|-----1----------|-----0-------0--|-----3----------|
A|-0-------0------|-0--------------|-0-------0------|-0--------------|
E|----------------|----------------|----------------|----------------|
 |                                                                   |
e|----------------|----------------|----------------|----------------|
B|-2---0----------|----------------|----------------|----------------|
G|---------2------|----------------|----------------|----------------|
D|----------------|----------------|----------------|----------------|
A|----------------|----------------|----------------|----------------|
E|----------------|----------------|----------------|----------------|

gone


e|----------------|----------------|----------------|----------------|
B|----------------|----------------|----------------|----------------|
G|----------------|----------------|----------------|----------------|
D|-----2-------2--|-----1----------|----------------|----------------|
A|-0-------0------|-0--------------|----------------|----------------|
E|----------------|----------------|----------------|----------------|
 |                                                                   |
e|----------------|----------------|----------------|----------------|
B|----------------|-2-3-2----------|----------------|----------------|
G|---------2---4--|----------------|-----2-------2--|-4---2---1---2--|
D|-----2----------|----------------|---------------2|----------------|
A|----------------|----------------|----------------|----------------|
E|----------------|----------------|----------------|----------------|

   Good-   bye my   only friend          Oh,  Did you think i meant you?



e|----------------|----------------|----------------|----------------|
B|----------------|----------------|----------------|----------------|
G|----------------|----------------|----------------|----------------|
D|-----2-------2--|-----1----------|-----0-------0--|----------------|
A|-0-------0------|-0--------------|-0-------0------|-------------2--|
E|----------------|----------------|----------------|-0-0-0-0-2-4----|
 |                                                                   |
e|----------------|----------------|----------------|----------------|
B|----------------|-2-3---------2--|----------------|----------------|
G|---------2---4--|---------------4|-2-------4----1-|----------------|
D|-----2----------|----------------|----------------|----------------|
A|----------------|----------------|----------------|----------------|
E|----------------|----------------|----------------|----------------|

     That would be funny      if it weren't  so sad


e|----------------|----------------|----------------|----------------|
B|----------------|----------------|----------------|----------------|
G|----------------|----------------|----------------|----------------|
D|-----2-------2--|-----1----------|-----0-------0--|-----3----------|
A|-0-------0------|-0--------------|-0-------0------|-0--------------|
E|----------------|----------------|----------------|----------------|
 |                                                                   |
e|----------------|----------------|----------------|----------------|
B|----------------|-2-3-2----------|----------------|----------------|
G|---------2---4--|----------------|-----2---2------|-4---2---1---2--|
D|-----2----------|----------------|-------------2--|----------------|
A|----------------|----------------|----------------|----------------|
E|----------------|----------------|----------------|----------------|

      Well You have been replaced        I don't need any-   one now


e|----------------|----------------|----------------|----------------|
B|----------------|----------------|----------------|----------------|
G|----------------|----------------|----------------|----------------|
D|-----2-------2--|-----1----------|-----0-------0--|----------------|
A|-0-------0------|-0--------------|-0-------0------|-----4-------4--|
E|----------------|----------------|----------------|-4------4-------|
 |                                                                   |
e|----------------|----------------|---------2------|-1--------------|
B|----------------|-2---3---2------|----------------|-----2----------|
G|---------2---4--|-------------4--|-2--------------|---------4---3--|
D|-----2----------|----------------|----------------|----------------|
A|----------------|----------------|----------------|----------------|
E|----------------|----------------|----------------|----------------|

       When I    delete you maybe   I'll     stop     feeling so   bad


e|-2-------2------|-2-------2------|-2-------2------|-2-------2------|
B|-2-------2------|-2-------2------|-2-------2------|-4-------4------|
G|----------------|----------------|----------------|----------------|
D|----------------|----------------|----------------|---------1---3--|
A|----------------|----------------|-1-----------1--|-2---4----------|
E|-2-----------2--|-4-----------4--|----------------|----------------|
 |                                                                   |
e|----------------|----------------|----------------|----------------|
B|----------------|----------------|----------------|----------------|
G|-3-------3------|-4-------4------|-6-------6------|-8------8-------|
D|-4-------4------|-4-------4------|-4-------4------|-9------9-------|
A|-4-------4------|-4-------4------|-4-------4------|-9------9-------|
E|-2-------2------|-4-------4------|-6-------6------|-7------7-------|
 |                                                                   |
e|----------------|----------------|---------6------|-4-------2------|
B|----------------|-----------2----|-2--------------|----------------|
G|----------------|-3----4---------|----------------|----------------|
D|----------------|----------------|----------------|----------------|
A|----------------|----------------|----------------|----------------|
E|----------------|----------------|----------------|----------------|

                   Go make some     new       dis-   as-     ter


e|-2-------2------|-2-------2------|-2-------2------|-2-------2------|
B|-2-------2------|-2-------2------|-2-------2------|-4-------4------|
G|----------------|----------------|----------------|----------------|
D|-4\-------------|----------------|----------------|---------1---3--|
A|----------------|----------------|-1-----------1--|-2---4----------|
E|---------2------|-4-----------4--|----------------|----------------|
 |                                                                   |
e|----------------|----------------|----------------|----------------|
B|----------------|----------------|----------------|----------------|
G|-3-------3------|-4-------4------|-6-------6------|-8------8-------|
D|-4-------4------|-4-------4------|-4-------4------|-9------9-------|
A|-4-------4------|-4-------4------|-4-------4------|-9------9-------|
E|-2-------2------|-4-------4------|-6-------6------|-7------7-------|
 |                                                                   |
e|----------------|----------------|----------------|----------------|
B|----------------|-4----2---------|-4----2---------|----------------|
G|----------------|-4----3----3----|-4----3----3----|----------------|
D|----------------|-----------4----|-----------4----|----------------|
A|----------------|----------------|----------------|----------------|
E|----------------|----------------|----------------|----------------|

                   That's what I'm counting on


e|-2-------2------|-2-------2------|-2-------2------|-2-------2------|
B|-2-------2------|-2-------2------|-2-------2------|-4-------4------|
G|----------------|----------------|----------------|----------------|
D|----------------|----------------|----------------|----------------|
A|----------------|----------------|-1-----------1--|-2-----------2--|
E|-2-----------2--|-4-----------4--|----------------|----------------|
 |                                                                   |
e|----------------|----------------|----------------|----------------|
B|----------------|----------------|----------------|----------------|
G|-3-------3------|-4-------4------|-6-------6------|-8------8-------|
D|-4-------4------|-4-------4------|-4-------4------|-9------9-------|
A|-4-------4------|-4-------4------|-4-------4------|-9------9-------|
E|-2-------2------|-4-------4------|-6-------6------|-7------7-------|
 |                                                                   |
e|----------------|----------------|---------6------|-4-------2--------|
B|----------------|-----------2----|-2--------------|------------------|
G|----------------|-3----4---------|----------------|------------------|
D|----------------|----------------|----------------|------------------|
A|----------------|----------------|----------------|------------------|
E|----------------|----------------|----------------|------------------|

                   You're someone    el-     se's    pro-     blem



e|-2-------2------|-0--------------|
B|-3-------3------|-0-------3------|
G|----------------|---------4------|
D|----------------|----------------|
A|-2-----------2--|-------------0--|
E|----------------|-0---2---4------|
 |                                 |
e|----------------|----------------|
B|----------------|----------------|
G|-7-------7------|-9-------7------|
D|-9-------9------|-9-------9------|
A|-9-------9------|-7-------7------|
E|-7-------7------|----------------|
 |                                 |
e|-2-----2-2---2--|-0--------------|
B|----------------|---------3------|
G|----------------|----------------|
D|----------------|----------------|
A|----------------|----------------|
E|----------------|----------------|

  Now  I   only    want    you


e|----------------|----------------|-2-------2------|-0--------------|
B|-2-------2------|-2-------2------|-3-------3------|-0-------3------|
G|-2-------2------|-2-------2------|----------------|---------4------|
D|-7-------6------|-4--------------|----------------|----------------|
A|----------------|---------7------|-5--------------|-7--------------|
E|----------------|----------------|---------7------|----------------|
 |                                                                   |
e|----------------|----------------|----------------|----------------|
B|----------------|-7--------------|----------------|----------------|
G|-6--------------|-6--------------|-7-------7------|-9-------7------|
D|-7--------------|-7--------------|-9-------9------|-9-------9------|
A|-7--------------|----------------|-9-------9------|-7-------7------|
E|----------------|----------------|-7-------7------|----------------|
 |                                                                   |
e|----------------|----------------|-2-----2-2---2--|-0--------------|
B|-2---0----------|----------------|----------------|---------3------|
G|---------2------|----------------|----------------|----------------|
D|----------------|----------------|----------------|----------------|
A|----------------|----------------|----------------|----------------|
E|----------------|----------------|----------------|----------------|

  gone                               Now  I   only    want    you


E|----------------|----------------|-2-------2------|-0-------0------|---|
B|-2-------2------|-2-------2------|-3-------3------|-2-------2------|-2-|
G|-2-------2------|-2-------2------|----------------|----------------|-2-|
D|-7-------6------|-4--------------|----------------|----------------|---|
A|----------------|---------7------|-5--------------|-7--------------|-0-|
E|----------------|----------------|---------7------|----------------|---|
 |                                                                   |
e|----------------|----------------|----------------|----------------|---|
B|----------------|-7--------------|----------------|----------------|---|
G|-6--------------|-6--------------|-7-------7------|-9-------7------|-6-|
D|-7--------------|-7--------------|-9-------9------|-9-------9------|-7-|
A|-7--------------|----------------|-9-------9------|-7-------7------|-7-|
E|----------------|----------------|-7-------7------|----------------|-5-|
 |                                                                   |
e|----------------|----------------|-2-----2-2---2--|-0--------------|---|
B|-2---0----------|----------------|----------------|---------3------|-2-|
G|---------2------|----------------|----------------|----------------|---|
D|----------------|----------------|----------------|----------------|---|
A|----------------|----------------|----------------|----------------|---|
E|----------------|----------------|----------------|----------------|---|

  gone                               Now  I   only    want    you     gone
Tap to rate this tab
# A B C D E F G H I J K L M N O P Q R S T U V W X Y Z