Song name
# A B C D E F G H I J K L M N O P Q R S T U V W X Y Z

Jonathan Coulton - Still Alive tab

Still Alive

Portal

Jonathan Coulton

tabbed by doctor gwaihir

Tuning: Standard tuning


The upper tab is instrumental, and has some chord suggestions above it

The lower tab is the sung melody


After the first verse and chorus I've included:
The second tab which is other instrumental fills and harmonies, and
The third tab which is bass


Have fun!




e|----------------|----------------|----------------|----------------|
B|----------------|----------------|----------------|----------------|
G|----------------|----------------|----------------|----------------|
D|----------------|----------------|----------------|----------------|
A|----------------|----------------|----------------|----------------|
E|----------------|----------------|----------------|----------------|
 |                                                                   |
e|----------------|----------------|----------------|-------3---2---0|
B|----------------|----------------|----------------|----------------|
G|----------------|----------------|----------------|----------------|
D|----------------|----------------|----------------|----------------|
A|----------------|----------------|----------------|----------------|
E|----------------|----------------|----------------|----------------|
This was a


  D	   Bm	   D	    Bm	    D	   Bm	     D	      Bm
e|----------------|----------------|----------------|----------------|
B|-----7-------7--|-----7-------7--|-----7-------7--|-----7-------7--|
G|---7---7---7---7|---7---7---7---7|---7---7---7---7|---7---7---7---7|
D|-7-------9------|-7-------9------|-7-------9------|-7-------9------|
A|----------------|----------------|----------------|----------------|
E|----------------|----------------|----------------|----------------|
 |                                                                   |
e|-0-2------------|-----------3-2-0|-0-2---------0--|----------------|
B|----------------|----------------|---------3------|----------------|
G|----------------|---------2------|----------------|-2-------------2|
D|----------------|----------------|----------------|----------------|
A|----------------|----------------|----------------|----------------|
E|----------------|----------------|----------------|----------------|

  triumph                 I'm making a note here: huge success    It's


  Em         	   A7	            D        Bm      D        Bm
e|----------------|----------------|----------------|----------------|
B|-----8-------8--|-----8-------8--|-----7-------7--|-----7-------7--|
G|---9---9---9---9|---9---9---9---9|---7---7---7---7|---7---7---7---7|
D|-9-------9------|-7-------7------|-7-------9------|-7-------9------|
A|----------------|----------------|----------------|----------------|
E|----------------|----------------|----------------|----------------|
 |                                                                   |
e|-0---2-3---0----|---------0------|---2------------|-------3---2---0|
B|---------------2|-----3----------|----------------|----------------|
G|----------------|-------------2--|-2--------------|----------------|
D|----------------|----------------|----------------|----------------|
A|----------------|----------------|----------------|----------------|
E|----------------|----------------|----------------|----------------|

 hard to o- ver- state  my sa- tis-faction                   Aperture


  D	   Bm	   D	    Bm	    D	   Bm	     D	      Bm
e|----------------|----------------|----------------|----------------|
B|-----7-------7--|-----7-------7--|-----7-------7--|-----7-------7--|
G|---7---7---7---7|---7---7---7---7|---7---7---7---7|---7---7---7---7|
D|-7-------9------|-7-------9------|-7-------9------|-7-------9------|
A|----------------|----------------|----------------|----------------|
E|----------------|----------------|----------------|----------------|
 |                                                                   |
e|-0-2------------|-----------3-2-0|-0-2---------0--|----------------|
B|----------------|----------------|---------3------|----------------|
G|----------------|---------2------|----------------|-2--------------|
D|----------------|----------------|----------------|----------------|
A|----------------|----------------|----------------|----------------|
E|----------------|----------------|----------------|----------------|

  science              We do what we must because we can


  Em               A7               BbM7
e|----------------|----------------|-------5--------|
B|-----8-------8--|-----8-------8--|-----6----------|
G|---9---9---9---9|---9---9---9---9|---7------------|
D|-9-------9------|-7-------7------|-8--------------|
A|----------------|----------------|----------------|
E|----------------|----------------|----------------|
 |                                                  |
e|-0---2-3-----0----------0-------0|-1-0------------|
B|---------------2|---3---------3--|-----3-1--------|
G|----------------|-----------2----|-------------2-3|
D|----------------|----------------|----------------|
A|----------------|----------------|----------------|
E|----------------|----------------|----------------|

 For the good of all of us except the ones who are dead  But there's



  F        C       Bb       F       F        C       Bb       F
e|----------------|----------------|----------------|----------------|
B|--10-------8----|----------10----|--10-------8----|----------10----|
G|10--10---9---9--|-7---7-910--10--|10--10---9---9--|-7---7-910--10--|
D|10------10------|-8------10------|10------10------|-8------10------|
A|----------------|----------------|----------------|----------------|
E|----------------|----------------|----------------|----------------|
 |                                                                   |
e|-----1---0------|----------------|-----1---3-1-0--|---0-1-1-----3-5|
B|-1---------3-3-1|-3-1-1-1--------|-1-------------3|-3--------------|
G|----------------|-------------2-3|----------------|----------------|
D|----------------|----------------|----------------|----------------|
A|----------------|----------------|----------------|----------------|
E|----------------|----------------|----------------|----------------|

No sense  crying over  every mistake You just keep on trying till you run out of cake
and the




  Bb      C        F   C   Dm       Bb      A
e|----------------|----------------|----------------|
B|---6---6---8---8|--10---8---6---6|----------------|
G|-7---7---9---9--|10---9---7---7--|---7---7---6---6|
D|----------------|----------------|-8---8---7---7--|
A|----------------|----------------|----------------|
E|----------------|----------------|----------------|
 |                                                  |
e|-6-6-5---3---1-3|-5-5-3---1------|---1-1-0---0-2-2|
B|----------------|-------------3-1|-3--------------|
G|----------------|----------------|----------------|
D|----------------|----------------|----------------|
A|----------------|----------------|----------------|
E|----------------|----------------|----------------|

 science gets done and you make a neat gun for the people who are still alive



  D	   Bm	   D	    Bm	    D	   Bm	     D	      Bm
e|----------------|----------------|----------------|----------------|
B|-----7-------7--|-----7-------7--|-----7-------7--|-----7-------7--|
G|---7---7---7---7|---7---7---7---7|---7---7---7---7|---7---7---7---7|
D|-7-------9------|-7-------9------|-7-------9------|-7-------9------|
A|----------------|----------------|----------------|----------------|
E|----------------|----------------|----------------|----------------|
 |                                                                   |
e|-----------3p2--|-----------3p2--|-----------3p2--|-----------3p2--|
B|---------------3|---------------3|---------------3|---------------3|
G|----------------|-2--------------|-2--------------|-2--------------|
D|----------------|----------------|----------------|----------------|
A|----------------|----------------|----------------|----------------|
E|----------------|----------------|----------------|----------------|
 |                                                                   |
e|----------------|----------------|----------------|----------------|
B|----------------|----------------|----------------|----------------|
G|----------------|----------------|----------------|----------------|
D|-0-----0--------|-0-----0--------|-0-----0--------|-0-----0--------|
A|---------2-----2|---------2-----2|---------2-----2|---------2-----2|
E|----------------|----------------|----------------|----------------|
 |                                                                   |
e|----------------|----------------|----------------|---------3-2-0--|
B|----------------|----------------|----------------|-------3--------|
G|----------------|----------------|----------------|----------------|
D|----------------|----------------|----------------|----------------|
A|----------------|----------------|----------------|----------------|
E|----------------|----------------|----------------|----------------|

                                                         I'm not even



  D	   Bm	   D	    Bm	    D	   Bm	     D	      Bm
e|----------------|----------------|----------------|----------------|
B|-----7-------7--|-----7-------7--|-----7-------7--|-----7-------7--|
G|---7---7---7---7|---7---7---7---7|---7---7---7---7|---7---7---7---7|
D|-7-------9------|-7-------9------|-7-------9------|-7-------9------|
A|----------------|----------------|----------------|----------------|
E|----------------|----------------|----------------|----------------|
 |                                                                   |
e|-----------3p2--|-----------3p2--|-----------3p2--|-----------3p2--|
B|---------------3|---------------3|---------------3|---------------3|
G|----------------|-2--------------|-2--------------|-2--------------|
D|----------------|----------------|----------------|----------------|
A|----------------|----------------|----------------|----------------|
E|----------------|----------------|----------------|----------------|
 |                                                                   |
e|----------------|----------------|----------------|----------------|
B|----------------|----------------|----------------|----------------|
G|----------------|----------------|----------------|----------------|
D|-0-----0--------|-0-----0--------|-0-----0--------|-0-----0--------|
A|---------2-----2|---------2-----2|---------2-----2|---------2-----2|
E|----------------|----------------|----------------|----------------|
 |                                                                   |
e|-0-2------------|---------3-2-0-0|-----2-------0--|----------------|
B|----------------|----------------|-------3--------|----------------|
G|----------------|----------------|----------------|-2--------------|
D|----------------|----------------|----------------|----------------|
A|----------------|----------------|----------------|----------------|
E|----------------|----------------|----------------|----------------|

angry                      I'm being so sincere right now


  Em               A7               D        Bm      D        Bm
e|----------------|----------------|----------------|----------------|
B|-----8-------8--|-----8-------8--|-----7-------7--|-----7-------7--|
G|---9---9---9---9|---9---9---9---9|---7---7---7---7|---7---7---7---7|
D|-9-------9------|-7-------7------|-7-------9------|-7-------9------|
A|----------------|----------------|----------------|----------------|
E|----------------|----------------|----------------|----------------|
 |                                                                   |
e|----------------|----------------|-----------3p2--|-----------3p2--|
B|----------------|----------------|---------------3|---------------3|
G|----------------|----------------|----------------|-2--------------|
D|----------------|----------------|----------------|----------------|
A|----------------|----------------|----------------|----------------|
E|----------------|----------------|----------------|----------------|
 |                                                                   |
e|----------------|----------------|----------------|----------------|
B|----------------|----------------|----------------|----------------|
G|----------------|----------------|----------------|----------------|
D|-2-----2-2-4-5--|----------------|-0-----0--------|-0-----0--------|
A|----------------|-0-----0-0-2-4--|---------2-----2|---------2-----2|
E|----------------|----------------|----------------|----------------|
 |                                                                   |
e|-0---2-3-----0--|-------0--------|-----2----------|-----------3-2-0|
B|----------------|-2---3----------|----------------|---------3------|
G|----------------|-------------2--|-2--------------|----------------|
D|----------------|----------------|----------------|----------------|
A|----------------|----------------|----------------|----------------|
E|----------------|----------------|----------------|----------------|

  Even though you broke my heart and killed me             And tore me to


  D       Bm       D       Bm       D       Bm       D       Bm
e|----------------|----------------|----------------|----------------|
B|-----7-------7--|-----7-------7--|-----7-------7--|-----7-------7--|
G|---7---7---7---7|---7---7---7---7|---7---7---7---7|---7---7---7---7|
D|-7-------9------|-7-------9------|-7-------9------|-7-------9------|
A|----------------|----------------|----------------|----------------|
E|----------------|----------------|----------------|----------------|
 |                                                                   |
e|-----------3p2--|-----------3p2--|-----------3p2--|-----------3p2--|
B|---------------3|---------------3|---------------3|---------------3|
G|----------------|-2--------------|-2--------------|-2--------------|
D|----------------|----------------|----------------|----------------|
A|----------------|----------------|----------------|----------------|
E|----------------|----------------|----------------|----------------|
 |                                                                   |
e|----------------|----------------|----------------|----------------|
B|----------------|----------------|----------------|----------------|
G|----------------|----------------|----------------|----------------|
D|-0-----0--------|-0-----0--------|-0-----0--------|-0-----0--------|
A|---------2-----2|---------2-----2|---------2-----2|---------2-----2|
E|----------------|----------------|----------------|----------------|
 |                                                                   |
e|-0-2------------|---------3-2-0-0|-----2-------0--|----------------|
B|----------------|-------3--------|-------3--------|----------------|
G|----------------|----------------|----------------|-2--------------|
D|----------------|----------------|----------------|----------------|
A|----------------|----------------|----------------|----------------|
E|----------------|----------------|----------------|----------------|

 pieces                 And threw every piece into a fire


  Em               A7               BbM7
e|----------------|----------------|-------5--------|
B|-----8-------8--|-----8-------8--|-----6----------|
G|---9---9---9---9|---9---9---9---9|---7---------2-3|
D|-9-------9------|-7-------7------|-8--------------|
A|----------------|----------------|----------------|
E|----------------|----------------|----------------|
 |                                                  |
e|----------------|----------------|----------------|
B|----------------|----------------|----------------|
G|----------------|----------------|-------------2-3|
D|----------------|----------------|----------------|
A|----------------|----------------|----------------|
E|----------------|----------------|----------------|
 |                                                  |
e|----------------|----------------|----------------|
B|----------------|----------------|----------------|
G|----------------|----------------|----------------|
D|-2-----2-2-4-5--|----------------|----------------|
A|----------------|-0-----0-0-2-4--|-1-----1-1-1-1-1|
E|----------------|----------------|----------------|
 |                                                  |
e|-0---2-3-----0--|-------0-------0|-1-0------------|
B|----------------|-2---3-------3--|-----3-1--------|
G|----------------|-----------2----|----------------|
D|----------------|----------------|----------------|
A|----------------|----------------|----------------|
E|----------------|----------------|----------------|

As they burned it hurt because I was so happy for you. Now these



  F      C         Bb      F        F       C        Bb      F
e|----------------|----------------|----------------|----------------|
B|--10-------8----|----------10----|--10-------8----|----------10----|
G|10--10---9---9--|-7---7-910--10--|10--10---9---9--|-7---7-910--10--|
D|10------10------|-8------10------|10------10------|-8------10------|
A|----------------|----------------|----------------|----------------|
E|----------------|----------------|----------------|----------------|
 |                                                                   |
e|-----1----------|----------------|-----1---3-1-0--|---0-1-------3-5|
B|-1-----------3-1|-3-1-----1---1--|---1-----------3|----------------|
G|----------------|---------------3|-2--------------|----------------|
D|----------------|----------------|----------------|----------------|
A|----------------|----------------|----------------|----------------|
E|----------------|----------------|----------------|----------------|
 |                                                                   |
e|----------------|----------------|----------------|----------------|
B|----------------|----------------|----------------|----------------|
G|----------------|----------------|----------------|----------------|
D|-3-3---3--------|---------3-3----|-3-3------------|---------3------|
A|---------3-3---3|-1-1---1--------|---------3-3----|-1-1------------|
E|----------------|----------------|----------------|----------------|
 |                                                                   |
e|-----1---0------|----------------|-----1---3-1-0--|---0-1-1-----3-5|
B|-1---------3-3-1|-3-1-1-1--------|-1-------------3|-3--------------|
G|----------------|-------------2-3|----------------|----------------|
D|----------------|----------------|----------------|----------------|
A|----------------|----------------|----------------|----------------|
E|----------------|----------------|----------------|----------------|

points of data make a beautiful line And we're out of beta we're releasing on time So I'm


  Bb      C        F   C   Dm       Bb      A
e|----------------|----------------|----------------|
B|---6---6---8---8|--10---8---6---6|----------------|
G|-7---7---9---9--|10---9---7---7--|---7---7---6---6|
D|----------------|----------------|-8---8---7---7--|
A|----------------|----------------|----------------|
E|----------------|----------------|----------------|
 |                                                  |
e|-6-5---------1-3|-5---3---1------|-1-----0-----2--|
B|----------------|-------------3-1|----------------|
G|----------------|----------------|----------------|
D|----------------|----------------|----------------|
A|----------------|----------------|----------------|
E|----------------|----------------|----------------|
 |                                                  |
e|----------------|----------------|----------------|
B|----------------|----------------|----------------|
G|----------------|----------------|----------------|
D|----------------|-3---2---0------|-----3-------2--|
A|-1---1---3---3--|----------------|-1-------0------|
E|----------------|----------------|----------------|
 |                                                  |
e|-6-6-5---3---1-3|-5-5-3---1------|---1-1-0---0-2-2|
B|----------------|-------------3-1|-3--------------|
G|----------------|----------------|----------------|
D|----------------|----------------|----------------|
A|----------------|----------------|----------------|
E|----------------|----------------|----------------|

GLaD I got burned Think of all the things we learned for the people who are still alive


  D       Bm       D       Bm       D       Bm       D       Bm
e|----------------|----------------|----------------|----------------|
B|-----7-------7--|-----7-------7--|-----7-------7--|-----7-------7--|
G|---7---7---7---7|---7---7---7---7|---7---7---7---7|---7---7---7---7|
D|-7-------9------|-7-------9------|-7-------9------|-7-------9------|
A|----------------|----------------|----------------|----------------|
E|----------------|----------------|----------------|----------------|
 |                                                                   |
e|-----------3p2--|-----------3p2--|-----------3p2--|-----------3p2--|
B|---------------3|---------------3|---------------3|---------------3|
G|----------------|-2--------------|-2--------------|-2--------------|
D|----------------|----------------|----------------|----------------|
A|----------------|----------------|----------------|----------------|
E|----------------|----------------|----------------|----------------|
 |                                                                   |
e|----------------|----------------|----------------|----------------|
B|----------------|----------------|----------------|----------------|
G|----------------|----------------|----------------|----------------|
D|-0-----0--------|-0-----0--------|-0-----0--------|-0-----0--------|
A|---------2-----2|---------2-----2|---------2-----2|---------2-----2|
E|----------------|----------------|----------------|----------------|
 |                                                                   |
e|----------------|----------------|----------------|---------3-2-0--|
B|----------------|----------------|----------------|----------------|
G|----------------|----------------|----------------|----------------|
D|----------------|----------------|----------------|----------------|
A|----------------|----------------|----------------|----------------|
E|----------------|----------------|----------------|----------------|

                                                          Go ahead and

  D       Bm       D       Bm       D       Bm       D       Bm
e|----------------|----------------|----------------|----------------|
B|-----7-------7--|-----7-------7--|-----7-------7--|-----7-------7--|
G|---7---7---7---7|---7---7---7---7|---7---7---7---7|---7---7---7---7|
D|-7-------9------|-7-------9------|-7-------9------|-7-------9------|
A|----------------|----------------|----------------|----------------|
E|----------------|----------------|----------------|----------------|
 |                                                                   |
e|-0-2------------|-----------3-2-0|-0-2---------0--|----------------|
B|----------------|----------------|---------3------|----------------|
G|----------------|---------2------|----------------|-2--------------|
D|----------------|----------------|----------------|----------------|
A|----------------|----------------|----------------|----------------|
E|----------------|----------------|----------------|----------------|

 leave me			  I think I prefer to stay inside


  Em               A7               D       Bm       D       Bm
e|----------------|----------------|----------------|----------------|
B|-----8-------8--|-----8-------8--|-----7-------7--|-----7-------7--|
G|---9---9---9---9|---9---9---9---9|---7---7---7---7|---7---7---7---7|
D|-9-------9------|-7-------7------|-7-------9------|-7-------9------|
A|----------------|----------------|----------------|----------------|
E|----------------|----------------|----------------|----------------|
 |                                                                   |
e|-0---2-3---0----|---------0------|---2------------|---------3--2--0|
B|---------------2|-----3----------|----------------|----------------|
G|----------------|-------------2--|-2--------------|----------------|
D|----------------|----------------|----------------|----------------|
A|----------------|----------------|----------------|----------------|
E|----------------|----------------|----------------|----------------|

Maybe you'll find someone else to help you                 Maybe Black


  D       Bm       D       Bm       D       Bm       D       Bm
e|----------------|----------------|----------------|----------------|
B|-----7-------7--|-----7-------7--|-----7-------7--|-----7-------7--|
G|---7---7---7---7|---7---7---7---7|---7---7---7---7|---7---7---7---7|
D|-7-------9------|-7-------9------|-7-------9------|-7-------9------|
A|----------------|----------------|----------------|----------------|
E|----------------|----------------|----------------|----------------|
 |                                                                   |
e|-----------3p2--|-----------3p2--|-----------3p2--|-----------3p2--|
B|---------------3|---------------3|---------------3|---------------3|
G|----------------|-2--------------|-2--------------|-2--------------|
D|----------------|----------------|----------------|----------------|
A|----------------|----------------|----------------|----------------|
E|----------------|----------------|----------------|----------------|
 |                                                                   |
e|----------------|----------------|----------------|----------------|
B|----------------|----------------|----------------|----------------|
G|----------------|----------------|----------------|----------------|
D|-0-----0--------|-0-----0--------|-0-----0--------|-0-----0--------|
A|---------2-----2|---------2-----2|---------2-----2|---------2-----2|
E|----------------|----------------|----------------|----------------|
 |                                                                   |
e|-0-2------------|---------3-2-0-0|-----2-------0--|----------------|
B|----------------|----------------|-------3--------|----------------|
G|----------------|----------------|---------------2|----------------|
D|----------------|----------------|----------------|----------------|
A|----------------|----------------|----------------|----------------|
E|----------------|----------------|----------------|----------------|

  Mesa                 That was a joke  Ha Ha Fat chance


  Em               A7               BbM7
e|----------------|----------------|-------5--------|
B|-----8-------8--|-----8-------8--|-----6----------|
G|---9---9---9---9|---9---9---9---9|---7---------2-3|
D|-9-------9------|-7-------7------|-8--------------|
A|----------------|----------------|----------------|
E|----------------|----------------|----------------|
 |                                                  |
e|----------------|----------------|----------------|
B|----------------|----------------|----------------|
G|----------------|----------------|-------------2-3|
D|----------------|----------------|----------------|
A|----------------|----------------|----------------|
E|----------------|----------------|----------------|
 |                                                  |
e|----------------|----------------|----------------|
B|----------------|----------------|----------------|
G|----------------|----------------|----------------|
D|-2-----2-2-4-5--|----------------|----------------|
A|----------------|-0-----0-0-2-4--|-1-----1-1-1-1-1|
E|----------------|----------------|----------------|
 |                                                  |
e|-0---2-3-----0--|-------0-------0|-1-0------------|
B|----------------|-2---3-------3--|-----3-1--------|
G|----------------|-----------2----|-------------2-3|
D|----------------|----------------|----------------|
A|----------------|----------------|----------------|
E|----------------|----------------|----------------|

  Anyway    this cake is great It's so delicious and moist  Look at


  F       C        Bb      F        F       C        Bb      F
e|----------------|----------------|----------------|----------------|
B|--10-------8----|----------10----|--10-------8----|----------10----|
G|10--10---9---9--|-7---7-910--10--|10--10---9---9--|-7---7-910--10--|
D|10------10------|-8------10------|10------10------|-8------10------|
A|----------------|----------------|----------------|----------------|
E|----------------|----------------|----------------|----------------|
 |                                                                   |
e|-----1----------|----------------|-----1---3-1-0--|---0-1-------3-5|
B|-1-----------3-1|-3-1-----1---1--|---1-----------3|----------------|
G|----------------|---------------3|-2--------------|----------------|
D|----------------|----------------|----------------|----------------|
A|----------------|----------------|----------------|----------------|
E|----------------|----------------|----------------|----------------|
 |                                                                   |
e|----------------|----------------|----------------|----------------|
B|----------------|----------------|----------------|----------------|
G|----------------|----------------|----------------|----------------|
D|-3-3---3--------|---------3-3----|-3-3------------|---------3------|
A|---------3-3---3|-1-1---1--------|---------3-3----|-1-1------------|
E|----------------|----------------|----------------|----------------|
 |                                                                   |
e|-----1---0------|----------------|-----1---3-1-0--|---0-1-1-----3-5|
B|-1---------3-3-1|-3-1-1-1--------|-1-------------3|-3--------------|
G|----------------|-------------2-3|----------------|----------------|
D|----------------|----------------|----------------|----------------|
A|----------------|----------------|----------------|----------------|
E|----------------|----------------|----------------|----------------|

me still talking when there's science to do When I look out there it makes me GLaD I'm
not you I've ex-


  Bb      C        F   C   Dm       Bb      A
e|----------------|----------------|----------------|
B|---6---6---8---8|--10---8---6---6|----------------|
G|-7---7---9---9--|10---9---7---7--|---7---7---6---6|
D|----------------|----------------|-8---8---7---7--|
A|----------------|----------------|----------------|
E|----------------|----------------|----------------|
 |                                                  |
e|-6-5---------1-3|-5---3---1------|-1-----0-----2--|
B|----------------|-------------3-1|----------------|
G|----------------|----------------|----------------|
D|----------------|----------------|----------------|
A|----------------|----------------|----------------|
E|----------------|----------------|----------------|
 |                                                  |
e|----------------|----------------|----------------|
B|----------------|----------------|----------------|
G|----------------|----------------|----------------|
D|----------------|-3---2---0------|-----3-------2--|
A|-1---1---3---3--|----------------|-1-------0------|
E|----------------|----------------|----------------|
 |                                                  |
e|-6-6-5-3-3---1-3|-5-5-3-3-1------|---1-1-0---0-2-2|
B|----------------|-------------3-1|-3--------------|
G|----------------|----------------|----------------|
D|----------------|----------------|----------------|
A|----------------|----------------|----------------|
E|----------------|----------------|----------------|

 -periments to run There is research to be done On the people who are still alive


  D       Bm       D       Bm       D       Bm       D       Bm
e|----------------|----------------|----------------|----------------|
B|-----7-------7--|-----7-------7--|-----7-------7--|-----7-------7--|
G|---7---7---7---7|---7---7---7---7|---7---7---7---7|---7---7---7---7|
D|-7-------9------|-7-------9------|-7-------9------|-7-------9------|
A|----------------|----------------|----------------|----------------|
E|----------------|----------------|----------------|----------------|
 |                                                                   |
e|----------------|-----------3p2--|----------------|-----------3p2--|
B|----------------|---------------3|----------------|---------------3|
G|----------------|----------------|-2--------------|----------------|
D|----------------|----------------|----------------|----------------|
A|----------------|----------------|----------------|----------------|
E|----------------|----------------|----------------|----------------|
 |                                                                   |
e|----------------|----------------|----------------|----------------|
B|----------------|----------------|----------------|----------------|
G|----------------|----------------|----------------|----------------|
D|-0-----0--------|-0-----0--------|-0-----0--------|-0-----0--------|
A|---------2-----2|---------2-----2|---------2-----2|---------2-----2|
E|----------------|----------------|----------------|----------------|
 |                                                                   |
e|-------------5-5|-7-5------------|-----------5-5-5|-7-5------------|
B|----------------|-----7-----5-7-7|----------------|-----7-----5-7-7|
G|----------------|-------7--------|----------------|-------7--------|
D|----------------|----------------|----------------|----------------|
A|----------------|----------------|----------------|----------------|
E|----------------|----------------|----------------|----------------|

         And believe me I am still alive     I'm doing science and I'm still alive


  D       Bm       D       Bm       D       Bm       D       Bm
e|----------------|----------------|----------------|----------------|
B|-----7-------7--|-----7-------7--|-----7-------7--|-----7-------7--|
G|---7---7---7---7|---7---7---7---7|---7---7---7---7|---7---7---7---7|
D|-7-------9------|-7-------9------|-7-------9------|-7-------9------|
A|----------------|----------------|----------------|----------------|
E|----------------|----------------|----------------|----------------|
 |                                                                   |
e|----------------|-----------3p2--|----------------|----------------|
B|----------------|---------------3|----------------|----------------|
G|----------------|----------------|-2--------------|----------------|
D|----------------|----------------|----------------|----------------|
A|----------------|----------------|----------------|----------------|
E|----------------|----------------|----------------|----------------|
 |                                                                   |
e|----------------|----------------|----------------|----------------|
B|----------------|----------------|----------------|----------------|
G|----------------|----------------|----------------|----------------|
D|-0-----0--------|-0-----0--------|-0-----0--------|-0-----0--------|
A|---------2-----2|---------2-----2|---------2-----2|---------2-----2|
E|----------------|----------------|----------------|----------------|
 |                                                                   |
e|-----------5-5-5|-7-5------------|-------------5-5|-7-5------------|
B|----------------|-----7-----5-7-7|----------------|-----7-----5-7-7|
G|----------------|-------7--------|----------------|-------7--------|
D|----------------|----------------|----------------|----------------|
A|----------------|----------------|----------------|----------------|
E|----------------|----------------|----------------|----------------|

         I feel fantastic and I'm still alive  While you're dying  I'll be still alive


  D       Bm       D       Bm       D       Bm       D       Bm
e|----------------|----------------|----------------|----------------|
B|-----7-------7--|-----7-------7--|-----7-------7--|-----7-------7--|
G|---7---7---7---7|---7---7---7---7|---7---7---7---7|---7---7---7---7|
D|-7-------9------|-7-------9------|-7-------9------|-7-------9------|
A|----------------|----------------|----------------|----------------|
E|----------------|----------------|----------------|----------------|
 |                                                                   |
e|----------------|----------------|----------------|----------------|
B|----------------|----------------|----------------|----------------|
G|----------------|----------------|----------------|----------------|
D|----------------|----------------|----------------|----------------|
A|----------------|----------------|----------------|----------------|
E|----------------|----------------|----------------|----------------|
 |                                                                   |
e|----------------|----------------|----------------|----------------|
B|----------------|----------------|----------------|----------------|
G|----------------|----------------|----------------|----------------|
D|-0-----0--------|-0-----0--------|-0-----0--------|-0-----0--------|
A|---------2-----2|---------2-----2|---------2-----2|---------2------|
E|----------------|----------------|----------------|----------------|
 |                                                                   |
e|-----------5-5-5|-7-5------------|-----------3-5-5|-----------3-2-2|
B|----------------|-----7-----5-7-7|----------------|----------------|
G|----------------|-------7--------|----------------|----------------|
D|----------------|----------------|----------------|----------------|
A|----------------|----------------|----------------|----------------|
E|----------------|----------------|----------------|----------------|

  And when you're dead I will be still alive  Still alive    Still alive
Tap to rate this tab
# A B C D E F G H I J K L M N O P Q R S T U V W X Y Z