Song name
# A B C D E F G H I J K L M N O P Q R S T U V W X Y Z

Jonathan Coulton - Still Alive Singing tab

e|-------------------------------|
B|-------------------------------|
G|-0-------------0---------------|
D|---4-2-2-4-------4-2-2-4-0-2---|
A|-------------0---------------0-|
E|-------------------------------|

e|-------------------------------|
B|-------------------------------|
G|-------0-----------------------|
D|---2-4---2---0-2-----4---------|
A|-0---------4-----0-0-----------|
E|-------------------------------|

e|-------------------------------|
B|-------------------------------|
G|-0-------------0---------------|
D|---4-2-2-4-------4-2-2-4-0-2---|
A|-------------0---------------0-|
E|-------------------------------|

e|-------------------------------|
B|-------------------------------|
G|-----0-------------------------|
D|-2-4---2---0-2---0-2-3-2-0-----|
A|---------4-----0-----------3---|
E|-------------------------------|

4
e|-------------------------------|
B|-------------------------------|
G|-------------------------------|
D|-------3-2-0-0---0-------------|
A|-0-1-3---------3---3-3-3-------|
E|-------------------------------|

e|-------------------------------|
B|-------------------------------|
G|---------0---------------------|
D|-------3---3-2-0-0-2-3-3-------|
A|-0-1-3-------------------------|
E|-------------------------------|

e|-------------------------------|
B|-------------------------------|
G|-0-2-3-3-2-0----0-2-2-0--------|
D|--------------3---------3------|
A|-------------------------------|
E|-------------------------------|

e|-------------------------------|
B|-------------------------------|
G|-------------------------------|
D|-0---0-3-3-2-2-4-4-------------|
A|---3---------------------------|
E|-------------------------------|
Tap to rate this tab
# A B C D E F G H I J K L M N O P Q R S T U V W X Y Z