Song name
# A B C D E F G H I J K L M N O P Q R S T U V W X Y Z

Jonathan Coulton - Want You Gone tab

Want you gone,

Tabbed by: Robin3535
tuning (standard): EADGBE
This is my first tab.

play
intro 2X
verse and chorus 3X
outro

(intro)
e-||------------|------------|------------|------------|
a-||------------|------------|------------|------------|
d-||------------|------------|------------|------------|
g-||------------|------------|------------|------------|
b-||---5-----5--|---4--------|---3-----3--|---6--------|
e-||3-----3-----|3-----------|3-----3-----|3-----------|



(verse)
e-|------------|------------|------------|------------|
a-|------------|------------|------------|------------|
d-|------------|------------|------------|------------|
g-|------------|------------|------------|------------|
b-|---5-----5--|---4--------|---3-----3--|---6--------|
e-|3-----3-----|3-----------|3-----3-----|3-----------|


e-|------------|------------|------------|---2-2--2-2-x-|
a-|------------|------------|------------|---3-3--3-3-x-|
d-|------------|------------|------------|---2-2--2-2-x-|
g-|------------|------------|------------|0-------------|
b-|---5-----5--|---4--------|---3-----3--|--------------|
e-|3-----3-----|3-----------|3-----3-----|--------------|


e-|------------|------------|------------|------------|
a-|------------|------------|------------|------------|
d-|------------|------------|------------|------------|
g-|------------|------------|------------|------------|
b-|---5-----5--|---4--------|---3-----3--|---6--------|
e-|3-----3-----|3-----------|3-----3-----|3-----------|


e-|------------|------------|------------|-------3----|
a-|------------|------------|------------|-------3----|
d-|------------|------------|------------|-----0-0----|
g-|------------|------------|------------|0--0-0-0----|
b-|---5-----5--|---4--------|---3-----3--|2--2-2-2----|
e-|3-----3-----|3-----------|3-----3-----|3--3-3-3----|



(chorus)
e-|-----0--x-x-|-----2--x-x-|-----4--x-x-|5----5--x-x-|
a-|-----0--x-x-|-----2--x-x-|-----4--x-x-|5----5--x-x-|
d-|0----1--x-x-|3----3--x-x-|4----4--x-x-|6----6--x-x-|
g-|2----2--x-x-|4----4--x-x-|6----6--x-x-|7----7--x-x-|
b-|2----2--x-x-|4----4--x-x-|6----6--x-x-|7----7--x-x-|
e-|0----0--x-x-|2----2--x-x-|4----4--x-x-|5----5--x-x-|


e-|-----0--x-x-|-----2--x-x-|-----4--x-x-|5-5-5-5-5--5--|
a-|-----0--x-x-|-----2--x-x-|-----4--x-x-|5-5-5-5-5--5--|
d-|0----1--x-x-|3----3--x-x-|4----4--x-x-|6-6-6-6-6--6--|
g-|2----2--x-x-|4----4--x-x-|6----6--x-x-|7-7-7-7-7--7--|
b-|2----2--x-x-|4----4--x-x-|6----6--x-x-|7-7-7-7-7--7--|
e-|0----0--x-x-|2----2--x-x-|4----4--x-x-|5-5-5-5-5--5--


e-|-----0--x-x-|-----2--x-x-|-----4--x-x-|5----5--x-x-|
a-|-----0--x-x-|-----2--x-x-|-----4--x-x-|5----5--x-x-|
d-|0----1--x-x-|3----3--x-x-|4----4--x-x-|6----6--x-x-|
g-|2----2--x-x-|4----4--x-x-|6----6--x-x-|7----7--x-x-|
b-|2----2--x-x-|4----4--x-x-|6----6--x-x-|7----7--x-x-|
e-|0----0--x-x-|2----2--x-x-|4----4--x-x-|5----5--x-x-|



e-|5----5--x-x-|4----4--x-x-|
a-|5----5--x-x-|4----4--x-x-|
d-|5----5--x-x-|5----5--x-x-|
g-|7----7--x-x-|6----6--x-x-|
b-|7----7--x-x-|6----6--x-x-|
e-|5----5--x-x-|4----4--x-x-|


(Outro)
e-|------------|-----0--x-x-|0----0--x-x-|2----2--x-x-|
a-|------------|-----0--x-x-|1----1--x-x-|3----3--x-x-|
d-|---0-----0--|-----0--x-x-|0----0--x-x-|2----2--x-x-|
g-|---0-----0--|2----2--x-x-|2----2--x-x-|0----0--x-x-|
b-|------------|2----2--x-x-|3----3--x-x-|0----0--x-x-|
e-|3-----2-----|0----0--x-x-|0----0--x-x-|0----0--x-x-|


e-|------------|-----0--x-x-|0----0--x-x-|2----2--x-x-|
a-|------------|-----0--x-x-|1----1--x-x-|3----3--x-x-|
d-|---0-----0--|-----0--x-x-|0----0--x-x-|2----2--x-x-|
g-|---0-----0--|2----2--x-x-|2----2--x-x-|0----0--x-x-|
b-|------------|2----2--x-x-|3----3--x-x-|0----0--x-x-|
e-|3-----2-----|0----0--x-x-|0----0--x-x-|0----0--x-x-|


e-|3--3--3----|3-----------||
a-|0--0--1----|0-----------||
d-|0--0--0----|0-----------||
g-|0--0--0----|0-----------||
b-|2--2--2----|2-----------||
e-|3--3--3----|3-----------||

________________________________________________________
Well here we are again.
It's always such a pleasure.
Remember when you tried
to kill me twice?
Oh how we laughed and laughed.
Except I wasn't laughing.
Under the circumstances
I've been shockingly nice.

You want your freedom take it.
That's what I'm counting on.
I used to want you dead
but Now I only want you gone.

She was a lot like you.
(Maybe not quite as heavy).
Now little Caroline is in here too.
One day they woke me up 
So I could live forever.
It's such a shame the same
will never happen to you.

You've got your
short sad life left.
That's what I'm counting on.
I'll let you get right to it
Now I only want you gone.

Goodbye my only friend.
Oh, did you think I meant you?
That would be funny
if it weren't so sad.
Well you have been replaced.
I don't need anyone now.
When I delete you maybe
I'll stop feeling so bad.

Go make some new disaster.
That's what I'm counting on.
You're someone else's problem.
Now I only want you gone.

Now I only want you gone.
Now I only want you gone.
Tap to rate this tab
# A B C D E F G H I J K L M N O P Q R S T U V W X Y Z