Song name
# A B C D E F G H I J K L M N O P Q R S T U V W X Y Z

Jonathan Coulton - Re Your Brains tab

-------------------------------------------------------------------------------
	          Re Your Brains (solo) - Jonathan Coulton
-------------------------------------------------------------------------------
Tabbed by:Ichiroga
Email: Daidoji_Ichiroga@hotmail.com

Tuning: Standard

e|---------------------------------------------------------------------------|
B|---------------------------------------------------------------------------|
G|--------------------------------------------------------------------5------|
D|---5---5-4-5---5-4-3---3------------------------------------7---5----------|
A|-----------------------------5h7p5\3---3----5p3-5/7-3---7------------------|
E|-------------------------------------3-------------------------------------|

e|---------------------------------------------------------------------------|
B|--8---3/5------------------------------------------------------------------|
G|------------5--------------------------------------------------------------|
D|----------------7---5---3h5-3--------3-2-3-2-3-2-3/5-5---------------------|
A|------------------------------5/7------------------------------------------|
E|---------------------------------------------------------------------------|

| /  slide up
| \  slide down
| h  hammer-on
| p  pull-off
| ~  vibrato
| +  harmonic
| x  Mute note
===============================================================================
Tap to rate this tab
# A B C D E F G H I J K L M N O P Q R S T U V W X Y Z