Song name
# A B C D E F G H I J K L M N O P Q R S T U V W X Y Z

Jonathan Fin - Tittie Song tab

-------------------------------------------------------------------------------
			  Tittie Song - Jonathan Fin
-------------------------------------------------------------------------------
Tabbed by: Rowley112
Email:

Tuning:

   Damn, take a look....
e|---5------9------10------7-----------------------------------------------|
B|---5------9------10------7-----------------------------------------------|
G|---6------10-----11------8-----------------------------------------------|
D|---7------11-----12------9-----------------------------------------------|
A|---7------11-----12------9-----------------------------------------------|
E|---5------9------10------7-----------------------------------------------|


  I luv ur fukn titties...
e|---5------4------5-----7---------------------------------------------------|
B|---5------5------7-----7---------------------------------------------------|
G|---6------6------7-----8---------------------------------------------------|
D|---7------6------7-----9---------------------------------------------------|
A|---7------4------5-----9---------------------------------------------------|
E|---5------4------5-----7---------------------------------------------------|

     Thats pretty much it. Listen to the song for timing. Not a palm mute n the song,
let off pressure with ur left hand after a down stroke during verse. Fun song to play. I
know why Fin didnt help people out with it himself. Many have asked, including myself, 
he just said to lock urself n a closet n learn it. Well no closet, but I learned it, so
it is! Have fun!!

| /  slide up
| \  slide down
| h  hammer-on
| p  pull-off
| ~  vibrato
| +  harmonic
| x  Mute note
===============================================================================
Tap to rate this tab
# A B C D E F G H I J K L M N O P Q R S T U V W X Y Z