Song name
# A B C D E F G H I J K L M N O P Q R S T U V W X Y Z

Jonathan Fire Eater - Christmastime Halloween tab

#----------------------------------PLEASE NOTE---------------------------------#
#This file is the author's own work and represents their interpretation of the #
#song. You may only use this file for private study, scholarship, or research. #
#------------------------------------------------------------------------------#
#

CHRISTMASTIME, HALLOWEEN - FROM SELF-TITLED ALBUM
BY: JONATHAN FIRE* EATER
 VOCALS: STEWART LUPTON
 GUITAR: PAUL MAROON
 BASS: TOM FRANK
 ORGAN: WALTER MARTIN
 DRUMS: MATT BARRICK
SUBMITTED BY: JASON BACASA, DedalusJB@aol.com

USE A FAIRLY MODERATE TO SLOW TREMOLO ON THIS SONG.....VERY EASY TO PLAY

    B   B   SLIDE DOWN  E   E   E   SLIDE UP   B    B    SLIDE DOWN
E----7---7-----\-------0---0---0--------/-------7----7--------\----------------|
B----7---7-----\-------0---0---0--------/-------7----7--------\----------------|
G----8---8-----\-------1---1---1--------/-------8----8--------\----------------|
D----9---9-----\-------2---2---2--------/-------9----9--------\----------------|
A----9---9-----\-------2---2---2--------/-------9----9--------\----------------|
E----7---7-----\-------0---0---0--------/-------7----7--------\----------------|

    E   E   E
E----0---0---0---------------------------------------------------------|
B----0---0---0---------------------------------------------------------|
G----1---1---1---------------------------------------------------------|
D----2---2---2---------------------------------------------------------|
A----2---2---2---------------------------------------------------------|
E----0---0---0---------------------------------------------------------|


THATS ABOUT IT...JUST EVERY ONCE IN AWHILE WHEN PLAYING THE "B", STRIKE
1ST AND 2ND STRINGS BEFORE PLAYING THE "E" CHORD...
Tap to rate this tab
 
# A B C D E F G H I J K L M N O P Q R S T U V W X Y Z