Song name
# A B C D E F G H I J K L M N O P Q R S T U V W X Y Z

Jonathan Jeremiah - If You Only tab

-----------------------------------------------------------------------
                  IF YOU ONLY - Jonathan Jeremiah
-----------------------------------------------------------------------
Tabbed by:  Thomas
Email:      twerff@gmail.com

Album tuning: Half-Step Down (Eb Ab Db Gb Bb Eb)
Live tuning:  Normal (E A D G B E)

e |-------------------------------------------------------------------|
B |-3---------3-----5---------5-----0---------0-----0---------0-------|
G |-------0---------------0---------------0---------------0-----------|
D |-----0-------0-------0-------0-------0-------0-------0-------0-----|
A |-1-------1-------3-------3-----------------------------------------|
E |---------------------------------3-------3-------3-------3---------|

I made this tab by ear, no idea if this is what is actually played.
This is played during the whole song with some small variations.
It is a work in progress, but I'll update it soon enough ;)
Tap to rate this tab
# A B C D E F G H I J K L M N O P Q R S T U V W X Y Z