Song name
# A B C D E F G H I J K L M N O P Q R S T U V W X Y Z

Jonathan Jeremiah - How Half-heartedly We Behave tab

Capo on 1st fret

This riff is repeated throughout the intro and the verses, itís not entirely 
accurate but I did the best I could, you should be able to figure the specific 
notes played based on the chords:

D                                                A 

E--------------2-------0---|-0--------0---2-------0------|
B-3---3---3--------3-----3-|-----------------------------|
G---2-------2----2---------|-----2------------2----------|
D-0-----0------0-----0-----|---2--------2---2-------2----|
A--------------------------|-0------0-----0-----0--------|
E--------------------------|-----------------------------|

Bm                                                        A

E--------------2------------|----------------------------|
B-3-------3-------------3p2-|-2--------2h3--3h5---3p2----|
G-----4-------------4-------|-----2----------------------|
D---4-------4-----4---------|---2------------------------|
A-2-----2------2------2-----|-0------0------0-----0------|
E---------------------------|----------------------------|


Verse

D            A                                     Bm
You were through with me, as I was through with you
                    A     
But never did we know

That the love we had to give was just to borrow, not to keep
So never would it grow

Chorus  (same picking pattern):

Em7              D
And I was just a fool
                    Em7
For all that I had gotten used to
             A         A
Along the way 

And now our time has runneth out
surely as you must surely doubt
how we behaved

        
And so on! Have fun playing!
Tap to rate this tab
# A B C D E F G H I J K L M N O P Q R S T U V W X Y Z