Song name
# A B C D E F G H I J K L M N O P Q R S T U V W X Y Z

Jonathan Jeremiah - How Half-heartedly We Behave tab

Capo 3

 C                             G/B
----------------0-----------------------------0------------|
-1--------1--------------1-----3--------3-------------3----|
------0--------------0--------------0-------------0--------|
----2-------2------2-------2------0-------0-----0-------0--|
-3------3-------3------3-------2------2-------2-----2------|
-----------------------------------------------------------|

 Am7                           G
----------------0------------------------------------------|
-1--------1--------------1--------0----1----1h3---1---0----|
------0--------------0-------------------------------------|
----2-------2------2-------0------0------0------0-------0--|
-0------0-------0------0-----------------------------------|
-------------------------------3-----3------3-------3------| 2x

 F              Fmaj7          C
----------------0-----------------------------0------------|
-1--------1--------------1--------------1--------------1---|
------2--------------2--------------0--------------0-------|
----3-------3------3-------3------2-------2------2-------2-|
-------------------------------0h3----3-------3------3-----|
-1------1-------1------1-----------------------------------|

 F              Fmaj7          G
----------------0------------------------------------------|
-1--------1--------------1--------0----1----1h3---1---0----|
------2-----2--------2-------------------------------------|
----3--------------3-------3------0------0------0-------0--|
--------1--------------------------------------------------|
-1--------------1------1-------3-----3------0-------3------| 2x


You were through with me as I was through with you
But never did we know
That the love we had to give was just to borrow not to keep
So never would it grow

And I was just a fool for all that I had gotten used to along the way
And now our time has runneth out, surely as you must surely doubt
How we behaved

You had had enough of me and I enough of you
But never would we say
That the truths that you once told were merely lies that I believed
And can never be reclaimed

And I was just a fool for all that I had gotten used to along the way
And now our time has runneth out, surely as you must surely doubt
How we behaved
How half-heartedly behaved

And I was just a fool for all that I had gotten used to along the way
And now our time has runneth out, surely as you must surely doubt
How we behaved
How half-heartedly behaved
Tap to rate this tab
# A B C D E F G H I J K L M N O P Q R S T U V W X Y Z