Song name
# A B C D E F G H I J K L M N O P Q R S T U V W X Y Z

Jonathan Rhys Meyers - This Time tab

ARTIST: Jonathan Rhys Meyers
SONG: “THIS TIME”

DROP D TUNING

INTRO 2x

   D	     B	     D         B
E|-------------------------------------|
B|-----3-3--------------3-3------------|
G|-----2-2-4-4-4-4------2-2-4-4-4-4----|
D|-0-0-0-0-4-4-4-4--0-0-0-0-4-4-4-4----|
A|-0-0-----2-2-2-2--0-0-----2-2-2-2----|
D|-0-0--------------0-0----------------|


VERSE1

   D	     B	     D         B
E|-------------------------------------|
B|-----3-3--------------3-3------------|
G|-----2-2-4-4-4-4------2-2-4-4-4-4----|
D|-0-0-0-0-4-4-4-4--0-0-0-0-4-4-4-4----|
A|-0-0-----2-2-2-2--0-0-----2-2-2-2----|
D|-0-0--------------0-0----------------|

Tonight the sky above…

   D		B	  D
E|-----------------------------------------|
B|-----3-3--------------3-3-3-3-3-3--------|
G|-----2-2-4-4-4-4------2-2-2-2-2-2--------|
D|-0-0-0-0-4-4-4-4--0-0-0-0-0-0-0-0--------|
A|-0-0-----2-2-2-2--0-0--------------------|
D|-0-0--------------0-0--------------------|

Reminds me how to love… Walking through

     E		       D               B	      D              B
E|-----0-0-0-0-------------------------------------------------|
B|-----0-0-0-0------3-3--------------3-3-----------------------|
G|-----0-0-0-0------2-2-4-4-4-4------2-2-4-4-4-4---------------|
D|-2-2-2-2-2-2--0-0-0-0-4-4-4-4--0-0-0-0-4-4-4-4---------------|
A|-2-2----------0-0-----2-2-2-2--0-0-----2-2-2-2---------------|
D|-2-2----------0-0--------------0-0---------------------------|

Wintertime… where the stars all shine

E|-------------------------------------|
B|-----3-3--------------3-3------------|
G|-----2-2-4-4-4-4------2-2-4-4-4-4----|
D|-0-0-0-0-4-4-4-4--0-0-0-0-4-4-4-4----|
A|-0-0-----2-2-2-2--0-0-----2-2-2-2----|
D|-0-0--------------0-0----------------|

The Angel on the stairs

E|-----------------------------------------|
B|-----3-3--------------3-3-3-3-3-3--------|
G|-----2-2-4-4-4-4------2-2-2-2-2-2--------|
D|-0-0-0-0-4-4-4-4--0-0-0-0-0-0-0-0--------|
A|-0-0-----2-2-2-2--0-0--------------------|
D|-0-0--------------0-0--------------------|

Will tell you I was there		Under the

E|-----0-0-0-0----------------------|
B|-----0-0-0-0------3-3-3-3-3-------|
G|-----0-0-0-0------2-2-2-2-2-------|
D|-2-2-2-2-2-2--0-0-0-0-0-0-0-------|
A|-2-2----------0-0-----------------|
D|-2-2----------0-0-----------------|

front porch light on a mystery night

		           HARM.
E|---------------12-7---------------|
B|---------------12-7---------------|
G|----------------------------------|
D|-2-x-2-x-4-4-5--------------------|
A|-2-x-2-x-4-4-5--------------------|
D|-2-x-2-x-4-4-5--------------------|

CHORUS

   G					 D

E|-----0-0-0-0-0-0-0-0-0-0-0-0-0-0-0-0--------------------|
B|-----0-0-0-0-0-0-0-0-0-0-0-0-0-0-0-0-----3-3-3-3-3------|
G|-----0-0-0-0-0-0-0-0-0-0-0-0-0-0-0-0-----2-2-2-2-2------|
D|-5-5-5-5-5-5-5-5-5-5-5-5-5-5-5-5-5-5-0-0-0-0-0-0-0------|
A|-5-5-5-5-5-5-5-5-5-5-5-5-5-5-5-5-5-5-0-0-0-0-0-0-0------|
D|-5-5-5-5-5-5-5-5-5-5-5-5-5-5-5-5-5-5-0-0-0-0-0-0-0------|

I've been sitting watching life pass from the sidelines

   G

E|-----0-0-0-0-0-0-0-0-0-0-0-0-----0-0-0-0-0-------------|
B|-----0-0-0-0-0-0-0-0-0-0-0-0-----0-0-0-0-0-------------|
G|-----0-0-0-0-0-0-0-0-0-0-0-0-----0-0-0-0-0-------------|
D|-5-5-5-5-5-5-5-5-5-5-5-5-5-5-2-2-2-2-2-2-2-------------|
A|-5-5-5-5-5-5-5-5-5-5-5-5-5-5-2-2-2-2-2-2-2-------------|
D|-5-5-5-5-5-5-5-5-5-5-5-5-5-5-2-2-2-2-2-2-2-------------|

Been waiting for a dream to seep in through my blinds

E|-----0-0-0-0-0-0-0-0-0-0-0-0-----0-0-0-0-0---------|
B|-----0-0-0-0-0-0-0-0-0-0-0-0-----0-0-0-0-0---------|
G|-----0-0-0-0-0-0-0-0-0-0-0-0-4-4-4-4-4-4-4---------|
D|-5-5-5-5-5-5-5-5-5-5-5-5-5-5-4-4-4-4-4-4-4---------|
A|-5-5-5-5-5-5-5-5-5-5-5-5-5-5-2-2-2-2-2-2-2---------|
D|-5-5-5-5-5-5-5-5-5-5-5-5-5-5-----------------------|

I wondered what might happen if I left this all behind

E|-----0-0-0-0-0-----0-0-0-0-0-0-0-0-0-0-0-0-------|
B|-----0-0-0-0-0-----0-0-0-0-0-0-0-0-0-0-0-0-------|
G|-2-2-2-2-2-2-2-----0-0-0-0-0-0-0-0-0-0-0-0-------|
D|-2-2-2-2-2-2-2-5-5-5-5-5-5-5-5-5-5-5-5-5-5-------|
A|-0-0-0-0-0-0-0-5-5-5-5-5-5-5-5-5-5-5-5-5-5-------|
D|---------------5-5-5-5-5-5-5-5-5-5-5-5-5-5-------|

Would the wind be at my back ? Could I get you off my mind		This Time


VERSE2


The neon lights in bars

And headlights from the cars

Have started a symphony

Surrounding Me

The things I left behind

Have melted in my mind

And now there's a purity

Inside of me


CHORUS

INTERLUDE x3

E|----0-0-0-0-0-----0-0-0-0-0------|
B|----0-0-0-0-0-----0-0-0-0-0------|
G|----0-0-0-0-0-----0-0-0-0-0------|
D|5-5-5-5-5-5-5-2-2-2-2-2-2-2------|
A|5-5-5-5-5-5-5-2-2-2-2-2-2-2------|
D|5-5-5-5-5-5-5-2-2-2-2-2-2-2------|

On the 4rd count
E|----0-0-0-0-0-0-0-0-0-0-0-0-------|
B|----0-0-0-0-0-0-0-0-0-0-0-0-------|
G|----0-0-0-0-0-4-4-4-4-2-2-2-------|
D|5-5-5-5-5-5-5-4-4-4-4-2-2-2-------|
A|5-5-5-5-5-5-5-2-2-2-2-0-0-0-------|
D|5-5-5-5-5-5-5---------------------|


CHORUS

INTRO part at the END


I don’t know if there’s something missing… anyway thank you for checking this out!

Peace!
Tap to rate this tab
# A B C D E F G H I J K L M N O P Q R S T U V W X Y Z