Song name
# A B C D E F G H I J K L M N O P Q R S T U V W X Y Z

Jonathan Richman - Egyptian Reggae tab

This is a really good song when you've got the hang of it. it sounds really good if 
is someone playing the backing chords and someone playing the lead. Have fun!!!
standard tuning

    the chords-  Dm (132000)
                 Am (012200)
                 Gm?(333300){Honestly have no idea what these are called
                 Fm?(555500){Call them what you like and have fun


      Dm     Am    Dm      Am
e----------------------------------|
B----------------------------------|
G----------------------------------|
D-------0--0---------0-3-0---------| Repeat 2x
A---0-3------3-0--0-3------3-0-----|
E----------------------------------|
       Gm      Fm     Gm     Fm
e---------------------------------------|
B---------------------------------------|
G---------------------------------------|
D---------------------------------------|
A---0-3------0-3--0-3-------0-3---------|
E--------3-3-6--------3-3-6-------------|
  Dm    Am   Dm  Am
e------------------------|
B------------------------|
G--------0-0-------------|
D--0-0-3-----3-0---0-----|
A----------------3-------|
E------------------------|

and thats it, repeat as many times as you like!!
Tap to rate this tab
# A B C D E F G H I J K L M N O P Q R S T U V W X Y Z