Song name
# A B C D E F G H I J K L M N O P Q R S T U V W X Y Z

Jonathan Wilson - Can We Really Party Today tab

-----------------------------------------------------------------------------
     Can we really party today? - Jonathan Wilson
-----------------------------------------------------------------------------
Tabbed by:Eduardo Targueta
E-mail:eptargueta@gmail.com

From an amazing record. Play this melody along with the chords for the verse. Not 100% 
sure, learnt it from the record and from some live performances. Sometimes a sus4 is 
added to the D chord.

   Em      G              C      Am               C             D
e|--------------------------------------------------------------------------|
B|--------------------------------------------------------------------------|
G|--------------------------------------------------------------------------|
D|-------------------------------------------------------0h2---0------------|
A|---------------0h2p0---3---2--0--------0---2---3--------------------------|
E|-0---0-2-3----------------------------------------------------------------|
             C              D
e|--------------------------------------------------------------------------|
B|--------------------------------------------------------------------------|
G|--------------------------------------------------------------------------|
D|-------------------0h2----0------------------2--3--4----------------------|
A|--0---2----3--------------------------------------------------------------|
E|---------------------------------------------------------------------3-2-0|


And then, for the break:

C7M  ,  G   , C7M  ,  G    ,  D

Lots of variations here and there but this is the song's essencial

http://songsofjonathanwilson.com/
Tap to rate this tab
 
# A B C D E F G H I J K L M N O P Q R S T U V W X Y Z