Song name
# A B C D E F G H I J K L M N O P Q R S T U V W X Y Z

Jonezetta - Get Ready Hot Machete tab

e---------------------------------------------------------------------------------------------------|
B-----------------------------------------------------------------------------15----------13--------|
G---14-14-14-14h15p14-14-14-------12-14-------12---14h15p14-14-14h15p14-14-14----12-14-15----14-12--|
D---------------------------12-15-------12-15-------------------------------------------------------|
A---------------------------------------------------------------------------------------------------|
E---------------------------------------------------------------------------------------------------|


e-----------------------------------------------------------------------------------------------------|
B-------------------------------------------------------------------------------15----------13--------|
G--14h15p14-14-14h15p14-14-14-------12-14-------12---14h15p14-14-14h15p14-14-14----12-14-15----14-12--|
D-----------------------------12-15-------12-15-------------------------------------------------------|
A-----------------------------------------------------------------------------------------------------|
E-----------------------------------------------------------------------------------------------------|
Tap to rate this tab
 
# A B C D E F G H I J K L M N O P Q R S T U V W X Y Z