Guitaretab - guitar tabs
Song name
# A B C D E F G H I J K L M N O P Q R S T U V W X Y Z

Joni Mitchell - Woman Of Heart And Mind tab

Woman of Heart and Mind- Joni Mitchell
Tabbed by Robin Young

*Tuning: CGDFCE*

         (2x)
  /               \
E|-----------0---0-----------|
C|-----------0---0-----------|
F|-----------X---9-----------|
D|-------0---X---9---------0-|
G|-0-2-3-----0---0---0-2-3---|
C|-----------0---0-----------|
             C Cmaj7add9

   C  Cmaj7add9   G7/C    C  Cmaj7add9  Fmaj7add9
E|-0------0---------X-----X---0-------------0-----------------|
C|-0------0---------X-----X---0-------------0-----------------|
F|-X------9---------12----14--9-------------4-----------------|
D|-X------9---------12----14--9-------------5-----------------|
G|-0------0---------0-----0---0-------------5-----------------|
C|-0------0---------0-----0---0-------------5-----------------|
   I am a wom-an of heart and mind,    with time on her hands

   Bbmaj7/G   F/G    Gm   D9                      C
E|----5--------X------X---0-----------------------0-----------|
C|----5--------X------X---0-----------------------0-----------|
F|----5--------7------5---1-----------------------2-----------|
D|----5--------5------5---2-----------------------2-----------|
G|----0--------0------0---2-----------------------0-----------|
C|----X--------X------X---2-----------------------0-----------|
   No child to raise.       You come to me like a lit-tle boy

                                  G Gm7 G6sus2 G7sus4 G
E|--------------------------------X--X----X------X----X--|
C|--------------------------------2--5----4------0----2--|
F|--------------------------------2--5----4------0----2--|
D|--------------------------------0--0----0------0----0--|
G|--------------------------------0--0----0------0----0--|
C|--------------------------------X--X----X------X----X--|
   And I give you my scorn and my praise

  Gm7 G6sus2 G7sus4          C           Cmaj7sus2   G7/C   C
E|-X----X------X-------------0---------------0---------X----X---|
C|-5----4------0-------------0---------------0---------X----X---|
F|-5----4------0-------------X---------------9---------12---14--|
D|-0----0------0----------0--X---------------9---------12---14--|
G|-0----0------0----0-2-3----0---------------0---------0----0---|
C|-X----X------X-------------0---------------0---------0----0---|
                               You think Iím like your moth-er

Cmaj7sus2      Fmaj7sus2                    Bbmaj7/G          F/G Gm  D9
E|-0----------------0----------------------------5-------------X---X---0--|
C|-0----------------0----------------------------5-------------X---X---0--|
F|-9----------------4----------------------------5-------------7---5---1--|
D|-9----------------5----------------------------5-------------5---5---2--|
G|-0----------------5----------------------------0-------------0---0---2--|
C|-0----------------5----------------------------X-------------X---X---2--|
     Or another lov- -er, or your sister, or the queen of your dreams
[ Tab from: http://www.guitaretab.com/j/joni-mitchell/108657.html ]
                   C                                      G Gm7 G6sus2 G7sus4
E|-----------------0--------------------------------------X--X----X------X--|
C|-----------------0--------------------------------------2--5----4------0--|
F|-----------------2--------------------------------------2--5----4------0--|
D|-----------------2--------------------------------------0--0----0------0--|
G|-----------------0--------------------------------------0--0----0------0--|
C|-----------------0--------------------------------------X--X----X------X--|
   Or just another sil-ly girl, when love makes a fool of me

   G  Gm G6sus2 G7sus4        C Cmaj7add9         C
E|-X--X----X------X-----------0-----0-------------0--|
C|-2--X----4------0-----------0-----0-------------0--|
F|-2--5----4------0-----------X-----9-------------X--|
D|-0--5----0------0---------0-X-----9----------0--X--|
G|-0--0----0------0---0-2-3---0-----0----0-2-3----0--|
C|-X--X----X------X-----------0-----0-------------0--|

After the rush when you come down, youíre always disappointed
Nothing seems to keep you high
Win your medals, fuck your strangers
Donít it leave you on the empty side?
Iím looking for affection and respect, a little passion
You want stimulationónothing more, thatís what I think
But you know Iíll try to be there for you when your spirits start to sink

   G  Gm G6sus2 G7sus4        C Cmaj7add9         C
E|-X--X----X------X-----------0-----0-------------0--|
C|-2--X----4------0-----------0-----0-------------0--|
F|-2--5----4------0-----------X-----9-------------X--|
D|-0--5----0------0---------0-X-----9----------0--X--|
G|-0--0----0------0---0-2-3---0-----0----0-2-3----0--|
C|-X--X----X------X-----------0-----0-------------0--|

All this talk about holiness now, it must be the start of the latest style
Is it all books and words, or do you really feel it?
Do you really laugh, do you really care, do you really smile when you smile?
You criticize and you flatter, you imitate the best and the rest you memorize
You know the times you impress me most are the times when you donít try

                                                    (2x)
                                              /               \
   G  Gm G6sus2 G7sus4                   C    C7 C6(b5) G7/C  C
E|-X--X----X------X----------------------X----X---X-----X-----X--|
C|-2--X----4------0----------------------X----X---X-----X-----X--|
F|-2--5----4------0----------------------2----5---4-----0-----2--|
D|-0--5----0------0----------------------2----5---4-----0-----2--|
G|-0--0----0------0----------------------0----0---0-----0-----0--|
C|-X--X----X------X----------------------0----0---0-----0-----0--|
                     When you donít even try

   C7 C6(b5) G7/C         Csus2(b5)
E|-X----X-----X--------------2--|
C|-X----X-----X--------------2--|
F|-5----4-----0--------------2--|
D|-5----4-----0--------0-----2--|
G|-0----0-----0--0-2-3-------0--|
C|-0----0-----0----------0---0--|

Related for Woman Of Heart And Mind tab