Guitaretab - guitar tabs
Song name
# A B C D E F G H I J K L M N O P Q R S T U V W X Y Z

Joni Mitchell - California tab

-------------------------------------------------------------------------------
			     SONG NAME - Band Name
-------------------------------------------------------------------------------
Tabbed by: Shelby
Email: lipsmackergurl08@hotmail.com
Tuning:E
                   A  A A A                   E E  E E  E E  E
e|----------------------------------0--2----------------------------------------|
B|---4h5p4--0---0--2--2-2-2----0-4--------4-------------------------------------|
G|------------1----2--2-2-2--1----------------1-1--1-1--1-1--1-3p0---3p0-------|
D|-----------------2--2-2-2-------------------2-2--2-2--2-2--2-1p0---1p0-------|
A|--------------------------------------------2-2--2-2--2-2--2-3p0---3p0-------|
E|------------------------------------------------------------------------------|

e|--7--7---5--5---2--2---2--2--------------------------------------------------|
B|--9--9---5--5---2--2---3--3--------------------------------------------------|
G|:-9--9---6--6---3--3---3--3-:------------------------------------------------|
D|--9--9---7--7---4--4---3--3--------------------------------------------------|
A|--7--7---7--7---4--4---2--2--------------------------------------------------|
E|--7--7---5--5---2--2---2--2--------------------------------------------------|
| /  slide up
| \  slide down
| h  hammer-on
| p  pull-off
| ~  vibrato
| +  harmonic
| x  Mute note
===============================================================================
[ Tab from: http://www.guitaretab.com/j/joni-mitchell/131673.html ]
Related for California tab