Song name
# A B C D E F G H I J K L M N O P Q R S T U V W X Y Z

Jonny Craig - The Garbage Pail Kid Gang Bang tab

There is no tabs for this band so im putting this one up. Please add some more 
tabs to his songs cuz i want to learn them. Email me if I made any mistakes

bljeep90@yahoo.com

The whole song basically repeats itself
Intro/Verse (x2)
|-----------------------------------------------|
|-----------------------------------------------|
|--2h3p2------------x--2h3p2--------------x-----|
|--------5p3-0-3h5--x--------5p3-0-3-0----x-----|
|-------------------x---------------------x-----|
|-------------------x---------------------x-----|

|-----------------------------------------------|
|-----------------------------------------------|
|-2h3p2-------------x--2h3p2--------------------|
|-------5p3-0-3h5---x--------0-5-3-------0-3-5--|
|-------------------x--------------2-3-2--------|
|-------------------x---------------------------|

Bridge
|-----------------------------------------------|
|-----------------------------------------------|
|--10-------------10----------------------------|
|-----10-------10--------12---------------------|
|--------10--8--------------12----------10------|
|------------------------------10--8-10---------|

Chorus
|-----------------------------------------------|
|-----------------------------------------------|
|-8------10---12------8------10-----------------|
|-8------10---12------8------10---10------------|
|-6------8----10------6------8----10------------|
|---------------------------------8-------------|

|---------------------------------------|
|---------------------------------------|
|---8------7---5------------------------|
|---8------7---5------------------------|
|---6------5---3------------------------|
|---------------------------------------|
Tap to rate this tab
# A B C D E F G H I J K L M N O P Q R S T U V W X Y Z