Jonny Craig - Ive Been Hearing That Youre Freaky tab

-----------------------------------------------------------
		I've Been Hearing That You're Freaky - Jonny Craig
-----------------------------------------------------------
Tabbed by: Kristyn Lee
Email: spot_the_village_loony_836@hotmail.com

Tuning: half step down

This is just the main piano part

eb|-----------------------------------|
Bb|-----------------------------------|
Gb|-------6h8h9~---8h9p8-6------------|
Db|-----6--------6---------6----------|
Ab|---7-------------------------------|
Eb|-----------------------------------|

eb|-----------------------------------|
Bb|-----------------------------------|
Gb|-----------------------------------|
Db|-------6h8h9~---8h9p8-6------------|
Ab|-----6--------6---------6----------|
Eb|---7-------------------------------|


************************************

| /   slide up
| \   slide down
| h   hammer-on
| p   pull-off
| ~   vibrato
| +   harmonic
| x   Mute note
| b   Bend
| pb  Pre-bend
| br  Bend release
| pbr Pre-bend release
| brb Bend release bend

************************************
Tap to rate this tab
 
# A B C D E F G H I J K L M N O P Q R S T U V W X Y Z