Jonny Craig - I Still Feel Her Part 3 tab

----------------------------------------------------
			     I Still Feel Her Part 3 - Jonny Craig
----------------------------------------------------
Tabbed by: Kristyn Lee
Email: spot_the_village_loony_836@hotmail.com

I had To make some parts of this up coz it's hard to hear, i think it sounds right though

Tuning: standard

Intro  x2
E|-----------------------------------------------------|
B|--------8-------8------------------------------------|
G|----------9-------9---------------7-9----------------|
D|-----9-------9------9-----10-9-----------------------|
A|---7--------------------7-------7--------------------|
E|-----------------------------------------------------|

E|-----------------------------------------------------|
B|--------8------8-------------------------------------|
G|----------9------9-----0-------7h9p7-----------------|
D|-----9------9------9---9/10--------------------------|
A|---7------------------------10-----------------------|
E|-----------------------------------------------------|

0:17
E|----------------------------------------------------|
B|----------15^-15--------12^--12---------------------|
G|----------------------------------------------------|x2
D|----------------------------------------------------|
A|---12/14----------12/14-----------------------------|
E|----------------------------------------------------|

Verse
"how far back...can you remember..."

E|-------15---------15-------15-14-------14-------14------|
B|----------17---------17----------17-------17------------|
G|--------------------------------------------------------|
D|---17--------17---------17----------17-------17---------|
A|--------------------------------------------------------|
E|--------------------------------------------------------|


Chorus
"do the words still haunt you..."
E|------------------------------------------------------------|
B|---17-17-17-17-17-17-13-13-13-13-13-13-15-15-15-15-15-15----|
G|------------------------------------------------------------|
D|------------------------------------------------------------|
A|------------------------------------------------------------|
E|------------------------------------------------------------|

play this chord throughout the chorus
E|----0------------------------------------------|
B|----0------------------------------------------|
G|----0------------------------------------------|
D|----9------------------------------------------|
A|-----------------------------------------------|
E|-----------------------------------------------|

Repeat intro riff and verse

play this during second chorus
E|-----------------------------------------------------|
B|-----------------------------------------------------|
G|-------9-9--------9-9-------11-11------9-9/11\7------|
D|-----9-----9----9-----9---9-------9------------------|
A|---7----------7---------7------------7---------------|
E|-----------------------------------------------------|


2:08
E|----------------------------------------------------|
B|-------8---------8---------5-------5----------------|
G|---------9---------9---------7-------7--------------|
D|-----------9---------9---------7-------7------------|
A|----7---------7--------7\5-------5-------5----------|
E|----------------------------------------------------|

Repeat chorus



************************************

| /   slide up
| \   slide down| p   pull-off
| ~   vibrato
| +   harmonic
| x   Mute note
| b   Bend
| pb  Pre-bend
| br  Bend release
| pbr Pre-bend release
| brb Bend release bend

************************************
Tap to rate this tab
 
# A B C D E F G H I J K L M N O P Q R S T U V W X Y Z