Song name
# A B C D E F G H I J K L M N O P Q R S T U V W X Y Z

Jonny Diaz - Other Guys tab

---------------------->>>>>|  Other Guys  |<<<<<------------------          
---------------------->>>>>|      by      |<<<<<------------------      
---------------------->>>>>|  Jonny Diaz  |<<<<<------------------         

You will have to reverse the capo or buy a capo that pushes down three strings like this  
e:--------0---|  
on the 2nd fret.This is my first tab,so 
                   B:--------0---|  i hope you like it.
                   G:--------1---|
                   D:--------1---|
                   A:--------1---|
                   E:--------0---|


  e:----x--0----x--0----x--0----x--0----x--0-------------|\
  B:----x--0----x--0----x--0----x--0----x--0-------------| \
  G:----x--7----x--6----x--4----x--6----x--7-------------|  \  REPEAT
  D:----x--0----x--0----x--0----x--0----x--0-------------|  /
  A:----x--0----x--0----x--0----x--0----x--0-------------| /
  E:----x--7----x--5----x--3----x--5----x--7-------------|/



  I don't know exactly in witch order but i do know that these chords are played in the song:



  e:---0----|   e:---0----|  e:---0----|  e:---0----|  e:---0----|
  B:---0----|   B:---0----|  B:---0----|  B:---0----|  B:---0----|
  G:---2----|   G:---2----|  G:---2----|  G:---2----|  G:---2----|
  D:---0----|   D:---0----|  D:---0----|  D:---0----|  D:---0----|
  A:---0----|   A:---0----|  A:---0----|  A:---3----|  A:---2----|
  E:---0----|   E:---2----|  E:---3----|  E:---0----|  E:---0----|

  e:---0----|
  B:---0----|
  G:---2----|
  D:---2----|
  A:---0----|
  E:---0----|


    myspace.com/JonnyDiazBand
Tap to rate this tab
 
# A B C D E F G H I J K L M N O P Q R S T U V W X Y Z