Song name
# A B C D E F G H I J K L M N O P Q R S T U V W X Y Z

Jonny Diaz - Come Child tab

Artist: Jonny Diaz
Song: Come Child
By: Kevin Rummelt

i couldnt find the lyrics anywhere and some parts i couldnt understand what he was 
so yeah not all the lyrics are right

tuning: half a step down Eb Ab Db Gb Bb eb

chords
E:022033
F#:2x0233
G:320033
C:x32033
D:xx0233


INTRO
|---------------------------0-0-------------------------------0-|
|-------3------------3------3---3----------3------------3-----3-|
|---------0------------0----2-----2----------0------------0---2-|
|-----0-----0------0-----0---------------0-----0------0-----0---|
|-2h3----------0h2-------------------2h3----------0h2-----------|
|---------------------------------------------------------------|

riff during verse repeat twice
|-----3-----3---3------3--|
|-----3-----3---3------3--|
|------------------0h2----|
|-------------0----0------|
|-2h3---0h2---------------|
|-------------------------|

then
|-----3-----3---3-------------------|
|-----3-----3---3-------------------|
|-----------------------------0h2p0-|
|-----------------------0h2p0-------|
|-2h3---0h2-------------------------|
|-------------2---2-2h3-------------|

first one again
|-----3-----3---3------3--|
|-----3-----3---3------3--|
|------------------0h2----|
|-------------0----0------|
|-2h3---0h2---------------|
|-------------------------|


VERSE

can i stay right here beside you

i dont want to leave right now

cuz i am feeling so alone

and i really dont know how


PRE CHORUS
          E                F#
to get through this on my own
      G               C
so i ask if you dont mind
        E              F#
can i stay here can i pray here
  C
little you a while


VERSE

will you hold my hand and tell me

that you know my surffering

and though i must go through it

youll go all the way with me


PRE CHORUS
       E            F#
and together we can do it
        G             C
if you help me to my feet
        E                   F#
i can stand please hold my hand
      C
and cling to me


CHORUS
          G           D            E      C
you said come child bring me you burdons
 G           D             E      C
come child bring me your cares
 G           D   E          C
come child come sit at my feet
     G                 D      E    C
you know where your father is at


VERSE

i cant not place me feet or footprints

that youve already made

i have no fear or worry

if i let you go a head


PRE CHORUS
E                F#
i can make the joruney
          G              C
you can lead me all the way
        E               F#
if you show me where to go
         C
i will follow you and stay


CHORUS
          G           D            E      C
you said come child bring me you burdons
 G           D             E      C
come child bring me your cares
 G           D       E     C
come child come sit at my feet
     G                 D      E    C
you know where your father is at


BRIDGE CHORDS SAME AS CHORUS

will you take me to the places

where soul become sweet

as i cling to gods hands

and follow at his feet

what if i had his power

that start to fall behind

if you stop i will catch up

ill lean on you a while

ill lean on you a while


CHORUS X2
          G           D            E      C
you said come child bring me you burdons
 G           D             E      C
come child bring me your cares
 G           D   E          C
come child come sit at my feet
     G                 D      E    C
you know where your father is at
Tap to rate this tab
 
# A B C D E F G H I J K L M N O P Q R S T U V W X Y Z