Song name
# A B C D E F G H I J K L M N O P Q R S T U V W X Y Z

Jonny Diaz - Hold Me tab

Open D Tuning 
(DADDAD)  Or (C#G#C#C#G#C#)
Verse:
D|-0-0-0-0---0-0-0-0-0---0------------------0-0-0-0---0--0-0-0-0---0----|
A|-7-7-7-7-h-9-7-7-7-7-h-9------0-------0---7-7-7-7-h-9--7-7-7-7-h-9----|
D|-0-0-0-0-0-0-0-0-0-0---0-----0-------0-0--0-0-0-0---0--0-0-0-0--------|
D|----------------------------------------------------------------------|
A|----------------------------------------------------------------------|
D|------------------------0-h-5---0-h-7---------------------------------|
Any other day I'd just run away; From what lies ahead; But right here I stay I've chosen to remain
Right where I've been led; I cannot see the end and I cannot pretend; Seas are calm ahead
And the only thing that I can ever cling to; Is what you've said

Pre- Chorus:
D|--0--0--0-|
A|--0--0--0-|
D|--0--0--0-|
D|--0--0--0-| x4
A|--9--7--5-|
D|--9--7--5-|
The clouds assume command; The sky unrolls its wrath
But firmly still i stand; There's no turning back

Chorus:
D|--0--0--0--0----0--0--0--0--|                
A|--0--0--0--0----0--0--0--0--|               
D|--0--0--0--0----0--0--0--0--| 
D|--0--0--0--0-x2-0--0--0--0--|
A|--5--5--9--7----5--7--9--5--|
D|--0--5--9--7----5--7--9--0--|
I need you to hold me; When the storms begin to rage
Cause you know me; And you know that I'm afraid
I'd rather go around but I'm following now; So I'll trust that we'll make it through
Just help me remember I'm never alone; Iím walking with you

Bridge:
D|---------------------------------------0-0-0--|
A|-----0-------0--------0---------0------0-0-0--|
D|----0-0--x2-0-0--x2--0-0--x2---0-0--x2-0-0-0--|
D|--0--------0--------0--------0---------0-0-0--|
A|--5--------4--------9--------7---------4-5-7--|
D|---------------------------------------4-5-7--|

Verse:
D|-0-0-0-0---0-0-0-0-0---0------------------0-0-0-0---0--0-0-0-0---0----|
A|-7-7-7-7-h-9-7-7-7-7-h-9------0-------0---7-7-7-7-h-9--7-7-7-7-h-9----|
D|-0-0-0-0-0-0-0-0-0-0---0-----0-------0-0--0-0-0-0---0--0-0-0-0--------|
D|----------------------------------------------------------------------|
A|----------------------------------------------------------------------|
D|------------------------0-h-5---0-h-7---------------------------------|
What is still unknown has caused my fear to grow; Fear of what's unseen
But with your embrace I know I can face; All that's facing me

Pre-Chorus/ Chorus:
Bridge:
Chorus:
Bridge:

Tap to rate this tab
 
# A B C D E F G H I J K L M N O P Q R S T U V W X Y Z