Song name
# A B C D E F G H I J K L M N O P Q R S T U V W X Y Z

Jonny Diaz - Love Like You Love tab

Love Like You Loved by Jonny Diaz

Capo on 10th fret

Chords:
       G   D/F#  C9   D
e|-----3----3----3----3-----|
B|-----3----3----3----3-----|
G|-----0----2----0----2-----|
D|-----0----0----2----0-----|
A|-----2----0----3----x-----| 
E|-----3----2----x----x-----|



           v   ^   v   ^  v   ^   v   ^                    
e|---------x---3---3---3--x---3---3---3---|
B|---------x---3---3---3--x---3---3---3---|
G|---------x---0---0---0--x---0---0---0---|
D|---------x---0---0---0--x---0---0---0---|
A|---------x---2---2---2--x---2---2---2---| 
E|---------x---3---3---3--x---3---3---3---|

HELP ME TO LOVE LIKE YOU LOVED

   v   ^   v   ^   v   ^   v   ^
e|-x---3---3---3---x---3---3---3---|
B|-x---3---3---3---x---3---3---3---|
G|-x---2---2---2---x---2---2---2---|
D|-x---0---0---0---x---0---0---0---|
A|-x---0---0---0---x---0---0---0---| 
E|-x---2---2---2---x---2---2---2---|

   SERVE LIKE YOU SERVED

    v ^  v  ^ v  ^ v ^ v ^ v ^ 
e|--x-3--3--3-x--3-3-3-x-3-3-3--|
B|--x-3--3--3-x--3-3-3-x-3-3-3--|
G|--x-2--2--2-x--2-2-2-x-0-0-0--|
D|--x-0--0--0-x--0-0-0-x-0-0-0--|
A|--x-0--0--0-x--0-0-0-x-2-2-2--| 
E|--x-0--2--2-x--2-2-2-x-3-3-3--|

TO SPEAK ONLY WORDS OF TRUTH

           v   ^   v   ^  v   ^   v   ^                    
e|---------x---3---3---3--x---3---3---3---|
B|---------x---3---3---3--x---3---3---3---|
G|---------x---0---0---0--x---0---0---0---|
D|---------x---0---0---0--x---0---0---0---|
A|---------x---2---2---2--x---2---2---2---| 
E|---------x---3---3---3--x---3---3---3---|

HELP ME TO CARE LIKE YOU CARED

      v ^  v  ^   v ^ v ^
e|----x-3--3--3---x-3-3-3---|
B|----x-3--3--3---x-3-3-3---|
G|----x-2--2--2---x-2-2-2---|
D|----x-0--0--0---x-0-0-0---|
A|----x-0--0--0---x-0-0-0---| 
E|----x-2--2--2---x-2-2-2---|

FOR A WORLD IN DESPAIR 

      ^    v  ^     ^ v ^     ^  v  ^  ^  v  ^
e|----3----3--3-----3-3-3-----3--3--3--3--3--3-|
B|----3----3--3-----3-3-3-----3--3--3--3--3--3-|
G|----0----0--0-----2-2-2-----0--0--0--0--0--0-|
D|----2----2--2--0--0-0-0-----0--0--0--0--0--0-|
A|-3--3----3--3---------------2--2--2--2--2--2-| 
E|-------------------------3--3--3--3--3--3--3-|
      HELP ME TO LOVE LIKE YOU

THERE ARE LOTS OF DIFFERENT PEOPLE 
FROM A LOT OF DIFFERENT PLACES 
WITH A LOT OF DIFFERENT POINTS OF VIEW
THERE'S A LOT OF DEBATING A LOT OF SPECULATING 
BUT THERE CAN ONLY BE ONE TRUTH

SOME WOULD SAY YOU'RE A LEADER 
CLAIM YOU'RE A LIAR 
SOME WOULD EVEN SAY THAT YOU'RE A FOOL 
BUT I KNOW YOU'RE A HEALER
THE PERFECT MESSIAH 
AND I WANT TO LIVE LIFE LIKE YOU 

THE PHILOSOPHERS IGNORED YOU
THE PHARISEES ABHORRED YOU 
CAUSE YOU DIDN'T FOLLOW THEIR RULES
BUT THE SINNERS WERE CHANGED
AND THEIR LIVES REARRANGED 
WHEN THEY PUT THEIR TRUST IN YOU 
Tap to rate this tab
 
# A B C D E F G H I J K L M N O P Q R S T U V W X Y Z