Song name
# A B C D E F G H I J K L M N O P Q R S T U V W X Y Z

Jonny Lang - One I Got tab

--------------------------------------------------------------------------
		         Jonny Lang - One I Got
--------------------------------------------------------------------------
Tabbed by:Gary Elechicon
Email:rephlica@yahoo.com

Tuning:standard

SOLO:

e|--12/14--15----12h14---10------------10--------------17/19--17--17/19----|
B|--------------------------12-----12------12------------------------------|
G|-------------------------------------------------------------------------|
D|-------------------------------------------------------------------------|
A|-------------------------------------------------------------------------|
E|-------------------------------------------------------------------------|

e|--14\12\10--10-----12h14-12--10--------12/14--15---12/14--15-------------|
B|--------------------------------12---------------------------------------|
G|-------------------------------------------------------------------------|
D|-------------------------------------------------------------------------|
A|-------------------------------------------------------------------------|
E|-------------------------------------------------------------------------|

e|--12/14--15----12/14--15---12h14--12----10-12----------------------------|
B|-------------------------------------12----------------------------------|
G|-------------------------------------------------------------------------|
D|-------------------------------------------------------------------------|
A|-------------------------------------------------------------------------|
E|-------------------------------------------------------------------------|

e|-------10--12--10h12--10-------------------------------------------------|
B|--/12---------------------12--10-----------------------------------------|
G|----------------------------------12--11------9/11-----------------------|
D|------------------------------------------12-----------------------------|
A|-------------------------------------------------------------------------|
E|-------------------------------------------------------------------------|

e|--------------10h12--10---10h12--10--------------------------------------|
B|------10--12--------------------------10h12p10---------------------------|
G|--11--------------------------------------------12-----------------------|
D|-------------------------------------------------------------------------|
A|-------------------------------------------------------------------------|
E|-------------------------------------------------------------------------|

e|-------------10-----12h14-----12---10------------------------------------|
B|-----10--12-----------------------------12-------------------------------|
G|--12---------------------------------------------------------------------|
D|-------------------------------------------------------------------------|
A|-------------------------------------------------------------------------|
E|-------------------------------------------------------------------------|

This one is the Harmonica Solo part.

| /  slide up
| \  slide down
| h  hammer-on
| p  pull-off
| ~  vibrato
| +  harmonic
| x  Mute note
Tap to rate this tab
 
# A B C D E F G H I J K L M N O P Q R S T U V W X Y Z