Guitaretab - guitar tabs
Song name
# A B C D E F G H I J K L M N O P Q R S T U V W X Y Z

Jonny Lang - Wander This World tab

Wander This World - Jonny Lang
Tabbed by his biggest fan

STANDARD TUNING
/ = SLIDE NOTES
[ Tab from: http://www.guitaretab.com/j/jonny-lang/40567.html ]
E-----------------------------------------------------|
B--------------------5-----------5--------------------|
G--------5--------5-----5-----5-----5-----------------|
D-----7-----7--5-----------4-----------3--------------|
A--0--------------------------------------2/3/2/3--0--|
E-----------------------------------------------------|

E--------------------------------5--------------------|
B--------------------5--------------------------------|
G--------5--------5-----5-----5-----5-----------------|
D-----7-----7--5-----------4-----------3--------------|
A--0--------------------------------------2/3/2/3--0--|
E-----------------------------------------------------|


(DO BOTH RIFFS ONE AFTER EACH OTHER AND PLAY THROUGHOUT THE WHOLE SONG
Related for Wander This World tab
Wander This World chords by Jonny Lang