Song name
# A B C D E F G H I J K L M N O P Q R S T U V W X Y Z

Jonsi - Boy Lilikoi tab

Tabbed: Magnus1225
Artist: Jonsi
Title:  Boy Lilikoi
Tuning: EADEG#C# - Capo 1

This is the acoustic version Jonsi played on Radio WYNC's Soundcheck.  
This and the original are both amazing, check them out.  
Quite an easy tune.  
Please rate!

http://www.jonsi.com/

Intro
    
   ^   ^   ^   ^    ^   ^   ^   ^    ^   ^   ^   ^    ^   ^   ^   ^   
C#|----------------|----------------|----------------|----------------|
G#|1-------1-------|1-------1-------|0-------1-------|0-------0-------|
E |----------------|----0-------0---|----0-------0---|----0-------0---|
D |0-------0-------|----------------|----------------|----------------|
A |----------------|0-------0-------|----------------|----------------|
E |----------------|----------------|0-------0-------|0-------0-------|
 
   ^   ^   ^   ^    ^   ^   ^   ^    ^   ^   ^   ^    ^   ^   ^   ^   
C#|----------------|----------------|----------------|----------------|
G#|1-------1-------|1-------1-------|0-------0-------|3-------0-------|
E |----2-------2---|----0-------0---|----0-------0---|----0-------0---|
D |0-------0-------|----------------|----------------|----------------|
A |----------------|0-------0-------|----------------|----------------|
E |----------------|----------------|0-------0-------|0-------0-------|

   ^   ^   ^   ^    ^   ^   ^   ^    ^   ^   ^   ^    ^   ^   ^   ^   
C#|----------------|----------------|----------------|----------------|
G#|1-------1-------|1-------1-------|0-------1-------|0-------0-------|
E |----2-------2---|----0-------0---|----0-------0---|----0-------0---|
D |0-------0-------|----------------|----------------|----------------|
A |----------------|0-------0-------|----------------|----------------|
E |----------------|----------------|0-------0-------|0-------0-------|

   ^   ^   ^   ^    ^   ^   ^   ^    ^   ^   ^   ^    ^   ^   ^   ^   
C#|----------------|----------------|----------------|----------------|
G#|1-------1-------|----------------|----------------|----------------|
E |----2-------2---|0-------0-------|0-------0-------|0-------0-------|
D |0-------0-------|----------------|----------------|----------------|
A |----------------|----4-------4---|----2-------2---|----2-------2---|
E |----------------|5-------5-------|0-------0-------|0-------0-------|

  (I)
                            
   ^   ^   ^   ^    ^   ^   ^   ^    ^   ^   ^   ^    ^   ^   ^   ^   
C#|----------------|----------------|----------------|----------------|
G#|1-------1-------|1-------1-------|0-------1-------|0-------0-------|
E |----2-------2---|----0-------0---|----0-------0---|----0-------0---|
D |0-------0-------|----------------|----------------|----------------|
A |----------------|0-------0-------|----------------|----------------|
E |----------------|----------------|0-------0-------|0-------0-------|

   ^   ^   ^   ^    ^   ^   ^   ^    ^   ^   ^   ^    ^   ^   ^   ^   
C#|----------------|----------------|----------------|----------------|
G#|1-------1-------|1-------1-------|0-------0-------|3-------0-------|
E |----2-------2---|----0-------0---|----0-------0---|----0-------0---|
D |0-------0-------|----------------|----------------|----------------|
A |----------------|0-------0-------|----------------|----------------|
E |----------------|----------------|0-------0-------|0-------0-------|
                            
   ^   ^   ^   ^    ^   ^   ^   ^    ^   ^   ^   ^    ^   ^   ^   ^   
C#|----------------|----------------|----------------|----------------|
G#|1-------1-------|1-------1-------|0-------1-------|0-------0-------|
E |----2-------2---|----0-------0---|----0-------0---|----0-------0---|
D |0-------0-------|----------------|----------------|----------------|
A |----------------|0-------0-------|----------------|----------------|
E |----------------|----------------|0-------0-------|0-------0-------|

   ^   ^   ^   ^    ^   ^   ^   ^    ^   ^   ^   ^    ^   ^   ^   ^   
C#|----------------|----------------|----------------|----------------|
G#|1-------1-------|----------------|----------------|----------------|
E |----2-------2---|0-------0-------|0-------0-------|0-------0-------|
D |0-------0-------|----------------|----------------|----------------|
A |----------------|----4-------4---|----2-------2---|----2-------2---|
E |----------------|5-------5-------|0-------0-------|0-------0-------|

  (I)
                           
   ^   ^   ^   ^    ^   ^   ^   ^    ^   ^   ^   ^    ^   ^   ^   ^   
C#|----------------|----------------|----------------|----------------|
G#|1-------1-------|1-------1-------|0-------1-------|0-------0-------|
E |----2-------2---|----0-------0---|----0-------0---|----0-------0---|
D |0-------0-------|----------------|----------------|----------------|
A |----------------|0-------0-------|----------------|----------------|
E |----------------|----------------|0-------0-------|0-------0-------|

   ^   ^   ^   ^    ^   ^   ^   ^    ^   ^   ^   ^    ^   ^   ^   ^   
C#|----------------|----------------|----------------|----------------|
G#|1-------1-------|1-------1-------|0-------0-------|3-------0-------|
E |----2-------2---|----0-------0---|----0-------0---|----0-------0---|
D |0-------0-------|----------------|----------------|----------------|
A |----------------|0-------0-------|----------------|----------------|
E |----------------|----------------|0-------0-------|0-------0-------|
                            
   ^   ^   ^   ^    ^   ^   ^   ^    ^   ^   ^   ^    ^   ^   ^   ^   
C#|----------------|----------------|----------------|----------------|
G#|1-------1-------|1-------1-------|0-------1-------|0-------0-------|
E |----2-------2---|----0-------0---|----0-------0---|----0-------0---|
D |0-------0-------|----------------|----------------|----------------|
A |----------------|0-------0-------|----------------|----------------|
E |----------------|----------------|0-------0-------|0-------0-------|

   ^   ^   ^   ^    ^   ^   ^   ^    ^   ^   ^   ^    ^   ^   ^   ^   
C#|----------------|----------------|----------------|----------------|
G#|1-------1-------|----------------|----------------|----------------|
E |----2-------2---|0-------0-------|0-------0-------|0-------0-------|
D |0-------0-------|----------------|----------------|----------------|
A |----------------|----4-------4---|----2-------2---|----2-------2---|
E |----------------|5-------5-------|0-------0-------|0-------0-------|
     
  (II)
                           
   ^   ^   ^   ^    ^   ^   ^   ^    ^   ^   ^   ^    ^   ^   ^   ^   
C#|1-------1-------|1-------1-------|1-------1-------|1-------1-------|
G#|----1-------1---|----1-------1---|----1-------1---|----1-------1---|
E |----------------|----------------|----------------|----------------|
D |0-------0-------|0-------0-------|0-------0-------|0-------0-------|
A |----------------|----------------|----------------|----------------|
E |----------------|----------------|----------------|----------------|

   ^   ^   ^   ^    ^   ^   ^   ^       
C#|3-------3-------|0-------0-------|
G#|----3-------3---|----0-------0---|
E |----------------|----------------|
D |2-------2-------|----------------|
A |----------------|4-------4-------|
E |----------------|----------------|
                            
   ^   ^   ^   ^    ^   ^   ^   ^    ^   ^   ^   ^    ^   ^   ^   ^   
C#|1-------1-------|1-------1-------|1-------1-------|1-------1-------|
G#|----1-------1---|----1-------1---|----1-------1---|----1-------1---|
E |----------------|----------------|----------------|----------------|
D |0-------0-------|0-------0-------|0-------0-------|0-------0-------|
A |----------------|----------------|----------------|----------------|
E |----------------|----------------|----------------|----------------|

   ^   ^   ^   ^    ^   ^   ^   ^    ^   ^   ^   ^    ^   ^   ^   ^   
C#|3-------3-------|3-------3-------|0-------0-------|0-------0-------|
G#|----3-------3---|----3-------3---|----0-------0---|----0-------0---|
E |----------------|----------------|----------------|----------------|
D |2-------2-------|2-------2-------|----------------|----------------|
A |----------------|----------------|4-------4-------|4-------4-------|
E |----------------|----------------|----------------|----------------|
                            
   ^   ^   ^   ^    ^   ^   ^   ^    ^   ^   ^   ^    ^   ^   ^   ^   
C#|1-------1-------|1-------1-------|1-------1-------|1-------1-------|
G#|----1-------1---|----1-------1---|----1-------1---|----1-------1---|
E |----------------|----------------|----------------|----------------|
D |0-------0-------|0-------0-------|0-------0-------|0-------0-------|
A |----------------|----------------|----------------|----------------|
E |----------------|----------------|----------------|----------------|

   ^   ^   ^   ^    ^   ^   ^   ^       
C#|3-------3-------|0-------0-------|
G#|----3-------3---|----0-------0---|
E |----------------|----------------|
D |2-------2-------|----------------|
A |----------------|4-------4-------|
E |----------------|----------------|
                            
   ^   ^   ^   ^    ^   ^   ^   ^    ^   ^   ^   ^    ^   ^   ^   ^   
C#|1-------1-------|1-------1-------|1-------1-------|1-------1-------|
G#|----1-------1---|----1-------1---|----1-------1---|----1-------1---|
E |----------------|----------------|----------------|----------------|
D |0-------0-------|0-------0-------|0-------0-------|0-------0-------|
A |----------------|----------------|----------------|----------------|
E |----------------|----------------|----------------|----------------|

   ^   ^   ^   ^    ^   ^   ^   ^    ^   ^   ^   ^    ^   ^   ^   ^   
C#|3-------3-------|3-------3-------|0-------0-------|0-------0-------|
G#|----3-------3---|----3-------3---|----0-------0---|----0-------0---|
E |----------------|----------------|----------------|----------------|
D |2-------2-------|2-------2-------|----------------|----------------|
A |----------------|----------------|4-------4-------|4-------4-------|
E |----------------|----------------|----------------|----------------|

   ^   ^   ^   ^    ^   ^   ^   ^    ^   ^   ^   ^    ^   ^   ^   ^   
C#|1-------1-------|1-------1-------|1-------1-------|1---------------|
G#|----1-------1---|----1-------1---|----1-------1---|----------------|
E |----------------|----------------|----------------|----------------|
D |0-------0-------|0-------0-------|0-------0-------|0---------------|
A |----------------|----------------|----------------|----------------|
E |----------------|----------------|----------------|----------------|

  Guitar

   ^   ^   ^   ^    ^   ^   ^   ^    ^   ^   ^   ^    ^   ^   ^   ^   
C#|----------------|----------------|----------------|----------------|
G#|1-------1-------|1-------1-------|0-------1-------|0-------0-------|
E |----2-------2---|----0-------0---|----0-------0---|----0-------0---|
D |0-------0-------|----------------|----------------|----------------|
A |----------------|0-------0-------|----------------|----------------|
E |----------------|----------------|0-------0-------|0-------0-------|

   ^   ^   ^   ^    ^   ^   ^   ^    ^   ^   ^   ^    ^   ^   ^   ^   
C#|----------------|----------------|----------------|----------------|
G#|1-------1-------|1-------1-------|0-------0-------|3-------0-------|
E |----2-------2---|----0-------0---|----0-------0---|----0-------0---|
D |0-------0-------|----------------|----------------|----------------|
A |----------------|0-------0-------|----------------|----------------|
E |----------------|----------------|0-------0-------|0-------0-------|

  (I)
                            
   ^   ^   ^   ^    ^   ^   ^   ^    ^   ^   ^   ^    ^   ^   ^   ^   
C#|----------------|----------------|----------------|----------------|
G#|1-------1-------|1-------1-------|0-------1-------|0-------0-------|
E |----2-------2---|----0-------0---|----0-------0---|----0-------0---|
D |0-------0-------|----------------|----------------|----------------|
A |----------------|0-------0-------|----------------|----------------|
E |----------------|----------------|0-------0-------|0-------0-------|

   ^   ^   ^   ^    ^   ^   ^   ^    ^   ^   ^   ^    ^   ^   ^   ^   
C#|----------------|----------------|----------------|----------------|
G#|1-------1-------|1-------1-------|0-------0-------|3-------0-------|
E |----2-------2---|----0-------0---|----0-------0---|----0-------0---|
D |0-------0-------|----------------|----------------|----------------|
A |----------------|0-------0-------|----------------|----------------|
E |----------------|----------------|0-------0-------|0-------0-------|
                             
   ^   ^   ^   ^    ^   ^   ^   ^    ^   ^   ^   ^    ^   ^   ^   ^   
C#|----------------|----------------|----------------|----------------|
G#|1-------1-------|1-------1-------|0-------1-------|0-------0-------|
E |----2-------2---|----0-------0---|----0-------0---|----0-------0---|
D |0-------0-------|----------------|----------------|----------------|
A |----------------|0-------0-------|----------------|----------------|
E |----------------|----------------|0-------0-------|0-------0-------|

   ^   ^   ^   ^    ^   ^   ^   ^    ^   ^   ^   ^    ^   ^   ^   ^   
C#|----------------|----------------|----------------|----------------|
G#|1-------1-------|----------------|----------------|----------------|
E |----2-------2---|0-------0-------|0-------0-------|0-------0-------|
D |0-------0-------|----------------|----------------|----------------|
A |----------------|----4-------4---|----2-------2---|----2-------2---|
E |----------------|5-------5-------|0-------0-------|0-------0-------|

  (II)
                            
   ^   ^   ^   ^    ^   ^   ^   ^    ^   ^   ^   ^    ^   ^   ^   ^   
C#|1-------1-------|1-------1-------|1-------1-------|1-------1-------|
G#|----1-------1---|----1-------1---|----1-------1---|----1-------1---|
E |----------------|----------------|----------------|----------------|
D |0-------0-------|0-------0-------|0-------0-------|0-------0-------|
A |----------------|----------------|----------------|----------------|
E |----------------|----------------|----------------|----------------|

   ^   ^   ^   ^    ^   ^   ^   ^       
C#|3-------3-------|0-------0-------|
G#|----3-------3---|----0-------0---|
E |----------------|----------------|
D |2-------2-------|----------------|
A |----------------|4-------4-------|
E |----------------|----------------|

   ^   ^   ^   ^    ^   ^   ^   ^    ^   ^   ^   ^    ^   ^   ^   ^   
C#|1-------1-------|1-------1-------|1-------1-------|1-------1-------|
G#|----1-------1---|----1-------1---|----1-------1---|----1-------1---|
E |----------------|----------------|----------------|----------------|
D |0-------0-------|0-------0-------|0-------0-------|0-------0-------|
A |----------------|----------------|----------------|----------------|
E |----------------|----------------|----------------|----------------|

   ^   ^   ^   ^    ^   ^   ^   ^    ^   ^   ^   ^    ^   ^   ^   ^   
C#|3-------3-------|3-------3-------|0-------0-------|0-------0-------|
G#|----3-------3---|----3-------3---|----0-------0---|----0-------0---|
E |----------------|----------------|----------------|----------------|
D |2-------2-------|2-------2-------|----------------|----------------|
A |----------------|----------------|4-------4-------|4-------4-------|
E |----------------|----------------|----------------|----------------|

   ^   ^   ^   ^    ^   ^   ^   ^    ^   ^   ^   ^    ^   ^   ^   ^   
C#|1-------1-------|1-------1-------|1-------1-------|1-------1-------|
G#|----1-------1---|----1-------1---|----1-------1---|----1-------1---|
E |----------------|----------------|----------------|----------------|
D |0-------0-------|0-------0-------|0-------0-------|0-------0-------|
A |----------------|----------------|----------------|----------------|
E |----------------|----------------|----------------|----------------|

   ^   ^   ^   ^    ^   ^   ^   ^       
C#|3-------3-------|0-------0-------|
G#|----3-------3---|----0-------0---|
E |----------------|----------------|
D |2-------2-------|----------------|
A |----------------|4-------4-------|
E |----------------|----------------|

   ^   ^   ^   ^    ^   ^   ^   ^    ^   ^   ^   ^    ^   ^   ^   ^   
C#|1-------1-------|1-------1-------|1-------1-------|1-------1-------|
G#|----1-------1---|----1-------1---|----1-------1---|----1-------1---|
E |----------------|----------------|----------------|----------------|
D |0-------0-------|0-------0-------|0-------0-------|0-------0-------|
A |----------------|----------------|----------------|----------------|
E |----------------|----------------|----------------|----------------|

   ^   ^   ^   ^    ^   ^   ^   ^    ^   ^   ^   ^    ^   ^   ^   ^   
C#|3-------3-------|3-------3-------|0-------0-------|0-------0-------|
G#|----3-------3---|----3-------3---|----0-------0---|----0-------0---|
E |----------------|----------------|----------------|----------------|
D |2-------2-------|2-------2-------|----------------|----------------|
A |----------------|----------------|4-------4-------|4-------4-------|
E |----------------|----------------|----------------|----------------|

   ^   ^   ^   ^    ^   ^   ^   ^    ^   ^   ^   ^    ^   ^   ^   ^   
C#|1-------1-------|1-------1-------|1-------1-------|1-------1-------|
G#|----1-------1---|----1-------1---|----1-------1---|----1-----------|
E |----------------|----------------|----------------|------------0---|
D |0-------0-------|0-------0-------|0-------0-------|0-------0-------|
A |----------------|----------------|----------------|----------------|
E |----------------|----------------|----------------|----------------|

  (III)

   ^   ^   ^   ^    ^   ^   ^   ^    ^   ^   ^   ^    ^   ^   ^   ^   
C#|----------------|----------------|0-------0-------|3-------3-------|
G#|1-------1-------|3-------3-------|----1-------1---|----1-------1---|
E |----0-------0---|----0-------0---|----------------|----------------|
D |----------------|----------------|----------------|----------------|
A |0-------0-------|0-------0-------|0-------0-------|0-------0-------|
E |----------------|----------------|----------------|----------------|

   ^   ^   ^   ^    ^   ^   ^   ^    ^   ^   ^   ^    ^   ^   ^   ^   
C#|----------------|----------------|0-------0-------|3-------3-------|
G#|1-------1-------|3-------3-------|----1-------1---|----1-------1---|
E |----0-------0---|----0-------0---|----------------|----------------|
D |----------------|----------------|----------------|----------------|
A |----------------|----------------|----------------|----------------|
E |0-------0-------|0-------0-------|0-------0-------|0-------0-------|

   ^   ^   ^   ^    ^   ^   ^   ^    ^   ^   ^   ^    ^   ^   ^   ^   
C#|----------------|----------------|0-------0-------|3-------3-------|
G#|1-------1-------|3-------3-------|----1-------1---|----1-------1---|
E |----2-------2---|----2-------2---|----------------|----------------|
D |0-------0-------|0-------0-------|0-------0-------|0-------0-------|
A |----------------|----------------|----------------|----------------|
E |----------------|----------------|----------------|----------------|

   ^   ^   ^   ^    ^   ^   ^   ^    ^   ^   ^   ^    ^   ^   ^   ^   
C#|----------------|----------------|0-------0-------|3-------3-------|
G#|1-------1-------|3-------3-------|----1-------1---|----1-------1---|
E |----0-------0---|----0-------0---|----------------|----------------|
D |----------------|----------------|----------------|----------------|
A |0-------0-------|0-------0-------|0-------0-------|0-------0-------|
E |----------------|----------------|----------------|----------------|
   
   ^   ^   ^   ^    ^   ^   ^   ^    ^   ^   ^   ^    ^   ^   ^   ^   
C#|----------------|----------------|0-------0-------|3-------3-------|
G#|1-------1-------|3-------3-------|----1-------1---|----1-------1---|
E |----0-------0---|----0-------0---|----------------|----------------|
D |----------------|----------------|----------------|----------------|
A |----------------|----------------|----------------|----------------|
E |0-------0-------|0-------0-------|0-------0-------|0-------0-------|

   ^   ^   ^   ^    ^   ^   ^   ^    ^   ^   ^   ^    ^   ^   ^   ^   
C#|----------------|----------------|0-------0-------|3-------3-------|
G#|1-------1-------|3-------3-------|----1-------1---|----1-------1---|
E |----2-------2---|----2-------2---|----------------|----------------|
D |0-------0-------|0-------0-------|0-------0-------|0-------0-------|
A |----------------|----------------|----------------|----------------|
E |----------------|----------------|----------------|----------------|

   ^   ^   ^   ^    ^   ^   ^   ^    ^   ^   ^   ^    ^   ^   ^   ^   
C#|----------------|----------------|0-------0-------|3-------3-------|
G#|1-------1-------|3-------3-------|----1-------1---|----1-------1---|
E |----0-------0---|----0-------0---|----------------|----------------|
D |----------------|----------------|----------------|----------------|
A |0-------0-------|0-------0-------|0-------0-------|0-------0-------|
E |----------------|----------------|----------------|----------------|

   ^   ^   ^   ^    ^   ^   ^   ^    ^   ^   ^   ^    ^   ^   ^   ^   
C#|----------------|----------------|0-------0-------|3---------------|
G#|1-------1-------|3-------3-------|----1-------1---|----------------|
E |----0-------0---|----0-------0---|----------------|----------------|
D |----------------|----------------|----------------|----------------|
A |----------------|----------------|----------------|----------------|
E |0-------0-------|0-------0-------|0-------0-------|0---------------|

  GUITAR

   ^   ^   ^   ^    ^   ^   ^   ^    ^   ^   ^   ^    ^   ^   ^   ^   
C#|----------------|----------------|----------------|----------------|
G#|1-------1-------|1-------1-------|0-------1-------|0-------0-------|
E |----2-------2---|----0-------0---|----0-------0---|----0-------0---|
D |0-------0-------|----------------|----------------|----------------|
A |----------------|0-------0-------|----------------|----------------|
E |----------------|----------------|0-------0-------|0-------0-------|

   ^   ^   ^   ^    ^   ^   ^   ^    ^   ^   ^   ^    ^   ^   ^   ^   
C#|----------------|----------------|----------------|----------------|
G#|1-------1-------|1-------1-------|0-------0-------|3-------0-------|
E |----2-------2---|----0-------0---|----0-------0---|----0-------0---|
D |0-------0-------|----------------|----------------|----------------|
A |----------------|0-------0-------|----------------|----------------|
E |----------------|----------------|0-------0-------|0-------0-------|

   ^   ^   ^   ^    ^   ^   ^   ^    ^   ^   ^   ^    ^   ^   ^   ^   
C#|----------------|----------------|----------------|----------------|
G#|1-------1-------|1-------1-------|0-------1-------|0-------0-------|
E |----2-------2---|----0-------0---|----0-------0---|----0-------0---|
D |0-------0-------|----------------|----------------|----------------|
A |----------------|0-------0-------|----------------|----------------|
E |----------------|----------------|0-------0-------|0-------0-------|

   ^   ^   ^   ^    ^   ^   ^   ^    ^   ^   ^   ^    ^   ^   ^   ^   
C#|----------------|----------------|----------------|----------------|
G#|1-------1-------|----------------|----------------|----------------|
E |----2-------2---|0-------0-------|0-------0-------|0---------------|
D |0-------0-------|----------------|----------------|----------------|
A |----------------|----4-------4---|----2-------2---|----------------|
E |----------------|5-------5-------|0-------0-------|0---------------|

  (IV)

   ^   ^   ^   ^    ^   ^   ^   ^    ^   ^   ^   ^    ^   ^   ^   ^   
C#|----------------|----------------|----------------|----------------|
G#|--------1-------|--------1-------|------------0---|----------------|
E |----2-------2---|----0-------0---|----0-----------|--------0-------|
D |0---------------|----------------|----------------|----------------|
A |----------------|0---------------|----------------|----------------|
E |----------------|----------------|0---------------|----------------|

   ^   ^   ^   ^    ^   ^   ^   ^    ^   ^   ^   ^    ^   ^   ^   ^   
C#|----------------|----------------|----------------|----------------|
G#|--------1-------|--------1-------|------------0---|----------------|
E |----2-------2---|----0-------0---|----0-----------|--------0-------|
D |0---------------|----------------|----------------|----------------|
A |----------------|0---------------|----------------|----------------|
E |----------------|----------------|0---------------|----------------|

   ^   ^   ^   ^    ^   ^   ^   ^    ^   ^   ^   ^    ^   ^   ^   ^   
C#|----------------|----------------|----------------|----------------|
G#|--------1-------|--------1-------|------------0---|----------------|
E |----2-------2---|----0-------0---|----0-----------|--------0-------|
D |0---------------|----------------|----------------|----------------|
A |----------------|0---------------|----------------|----------------|
E |----------------|----------------|0---------------|----------------|

   ^   ^   ^   ^    ^   ^   ^   ^    ^   ^   ^   ^    ^   ^   ^   ^   
C#|----------------|----------------|----------------|----------------|
G#|--------1-------|--------1-------|------------0---|----------------|
E |----2-------2---|----0-------0---|----0-----------|----------------|
D |0---------------|----------------|----------------|----------------|
A |----------------|0---------------|----------------|----------------|
E |----------------|----------------|0---------------|----------------|

  (III)

   ^   ^   ^   ^    ^   ^   ^   ^    ^   ^   ^   ^    ^   ^   ^   ^   
C#|----------------|----------------|0-------0-------|3-------3-------|
G#|1-------1-------|3-------3-------|----1-------1---|----1-------1---|
E |----2-------2---|----2-------2---|----------------|----------------|
D |0-------0-------|0-------0-------|0-------0-------|0-------0-------|
A |----------------|----------------|----------------|----------------|
E |----------------|----------------|----------------|----------------| 

   ^   ^   ^   ^    ^   ^   ^   ^    ^   ^   ^   ^    ^   ^   ^   ^   
C#|----------------|----------------|0-------0-------|3-------3-------|
G#|1-------1-------|3-------3-------|----1-------1---|----1-------1---|
E |----0-------0---|----0-------0---|----------------|----------------|
D |----------------|----------------|----------------|----------------|
A |0-------0-------|0-------0-------|0-------0-------|0-------0-------|
E |----------------|----------------|----------------|----------------|

   ^   ^   ^   ^    ^   ^   ^   ^    ^   ^   ^   ^    ^   ^   ^   ^   
C#|----------------|----------------|0-------0-------|3-------3-------|
G#|1-------1-------|3-------3-------|----1-------1---|----1-------1---|
E |----0-------0---|----0-------0---|----------------|----------------|
D |----------------|----------------|----------------|----------------|
A |----------------|----------------|----------------|----------------|
E |0-------0-------|0-------0-------|0-------0-------|0-------0-------|

   ^   ^   ^   ^    ^   ^   ^   ^    ^   ^   ^   ^    ^   ^   ^   ^   
C#|----------------|----------------|0-------0-------|3-------3-------|
G#|1-------1-------|3-------3-------|----1-------1---|----1-------1---|
E |----2-------2---|----2-------2---|----------------|----------------|
D |0-------0-------|0-------0-------|0-------0-------|0-------0-------|
A |----------------|----------------|----------------|----------------|
E |----------------|----------------|----------------|----------------|

   ^   ^   ^   ^    ^   ^   ^   ^    ^   ^   ^   ^    ^   ^   ^   ^   
C#|----------------|----------------|0-------0-------|3-------3-------|
G#|1-------1-------|3-------3-------|----1-------1---|----1-------1---|
E |----0-------0---|----0-------0---|----------------|----------------|
D |----------------|----------------|----------------|----------------|
A |0-------0-------|0-------0-------|0-------0-------|0-------0-------|
E |----------------|----------------|----------------|----------------|

   ^   ^   ^   ^    ^   ^   ^   ^    ^   ^   ^   ^    ^   ^   ^   ^   
C#|----------------|----------------|0-------0-------|3-------3-------|
G#|1-------1-------|3-------3-------|----1-------1---|----1-------1---|
E |----0-------0---|----0-------0---|----------------|----------------|
D |----------------|----------------|----------------|----------------|
A |----------------|----------------|----------------|----------------|
E |0-------0-------|0-------0-------|0-------0-------|0-------0-------|

   ^   ^   ^   ^    ^   ^   ^   ^    ^   ^   ^   ^    ^   ^   ^   ^   
C#|----------------|----------------|0-------0-------|3-------3-------|
G#|1-------1-------|3-------3-------|----1-------1---|----1-------1---|
E |----2-------2---|----2-------2---|----------------|----------------|
D |0-------0-------|0-------0-------|0-------0-------|0-------0-------|
A |----------------|----------------|----------------|----------------|
E |----------------|----------------|----------------|----------------|

   ^   ^   ^   ^    ^   ^   ^   ^    ^   ^   ^   ^    ^   ^   ^   ^   
C#|----------------|----------------|0-------0-------|3-------3-------|
G#|1-------1-------|3-------3-------|----1-------1---|----1-------1---|
E |----0-------0---|----0-------0---|----------------|----------------|
D |----------------|----------------|----------------|----------------|
A |0-------0-------|0-------0-------|0-------0-------|0-------0-------|
E |----------------|----------------|----------------|----------------|

   ^   ^   ^   ^    ^   ^   ^   ^    ^   ^   ^   ^    ^   ^   ^   ^   
C#|----------------|----------------|0-------0-------|3-------3-------|
G#|1-------1-------|3-------3-------|----1-------1---|----1-------1---|
E |----0-------0---|----0-------0---|----------------|----------------|
D |----------------|----------------|----------------|----------------|
A |----------------|----------------|----------------|----------------|
E |0-------0-------|0-------0-------|0-------0-------|0-------0-------|

   ^   ^   ^   ^    ^   ^   ^   ^    ^   ^   ^   ^    ^   ^   ^   ^   
C#|----------------|----------------|0-------0-------|3-------3-------|
G#|1-------1-------|3-------3-------|----1-------1---|----1-------1---|
E |----2-------2---|----2-------2---|----------------|----------------|
D |0-------0-------|0-------0-------|0-------0-------|0-------0-------|
A |----------------|----------------|----------------|----------------|
E |----------------|----------------|----------------|----------------|

   ^   ^   ^   ^    ^   ^   ^   ^    ^   ^   ^   ^    ^   ^   ^   ^   
C#|----------------|----------------|0-------0-------|3-------3-------|
G#|1-------1-------|3-------3-------|----1-------1---|----1-------1---|
E |----0-------0---|----0-------0---|----------------|----------------|
D |----------------|----------------|----------------|----------------|
A |0-------0-------|0-------0-------|0-------0-------|0-------0-------|
E |----------------|----------------|----------------|----------------|

   ^   ^   ^   ^    ^   ^   ^   ^    ^   ^   ^   ^    ^   ^   ^   ^   
C#|----------------|----------------|0-------0-------|3-------3-------|
G#|1-------1-------|3-------3-------|----1-------1---|----1-------1---|
E |----0-------0---|----0-------0---|----------------|----------------|
D |----------------|----------------|----------------|----------------|
A |----------------|----------------|----------------|----------------|
E |0-------0-------|0-------0-------|0-------0-------|0-------0-------|

  (I)

   ^   ^   ^   ^    ^   ^   ^   ^    ^   ^   ^   ^    ^   ^   ^   ^   
C#|----------------|----------------|----------------|----------------|
G#|1-------1-------|1-------1-------|0-------1-------|0-------0-------|
E |----2-------2---|----0-------0---|----0-------0---|----0-------0---|
D |0-------0-------|----------------|----------------|----------------|
A |----------------|0-------0-------|----------------|----------------|
E |----------------|----------------|0-------0-------|0-------0-------|

   ^   ^   ^   ^    ^   ^   ^   ^    ^   ^   ^   ^    ^   ^   ^   ^   
C#|----------------|----------------|----------------|----------------|
G#|1-------1-------|1-------1-------|0-------0-------|3-------0-------|
E |----2-------2---|----0-------0---|----0-------0---|----0-------0---|
D |0-------0-------|----------------|----------------|----------------|
A |----------------|0-------0-------|----------------|----------------|
E |----------------|----------------|0-------0-------|0-------0-------

   ^   ^   ^   ^    ^   ^   ^   ^    ^   ^   ^   ^    ^   ^   ^   ^   
C#|----------------|----------------|----------------|----------------|
G#|1-------1-------|1-------1-------|0-------1-------|0-------0-------|
E |----2-------2---|----0-------0---|----0-------0---|----0-------0---|
D |0-------0-------|----------------|----------------|----------------|
A |----------------|0-------0-------|----------------|----------------|
E |----------------|----------------|0-------0-------|0-------0-------|

   ^   ^   ^   ^    ^   ^   ^   ^    ^   ^   ^   ^    ^   ^   ^   ^   
C#|----------------|----------------|----------------|----------------|
G#|1-------1-------|1-------1-------|0-------0-------|0-------0-------|
E |----2-------2---|----0-------0---|----0-------0---|----0-----------|
D |0-------0-------|----------------|----------------|----------------|
A |----------------|0-------0-------|----------------|----------------|
E |----------------|----------------|0-------0-------|0-------0-------|
Tap to rate this tab
# A B C D E F G H I J K L M N O P Q R S T U V W X Y Z