Song name
# A B C D E F G H I J K L M N O P Q R S T U V W X Y Z

Jonsi - Go Do tab

This is the first part of Go Do, as heard from the acoustic version that was from Jónsi 
in a radio studio. (Apparently with a 3 stringed Tenor Ukulele! (This how-ever is for a 
guitar))
I don't know if this is in the correct key, but it works well and sounds correct. I 
been able to work out the rest, so if anyone can I'd love to see it. (It's all plucked clearly!)

E---0---0---0---0---0---0---0---0-|--0---0---0---0---0---0---0---0---|
B---------------------------------|----------------------------------|
G---------------------------------|----------------------------------|
D-2---2---2---2---2---2---2---2---|4---4---4---4---4---4---4---4-----|
A---------------------------------|----------------------------------|
E---------------------------------|----------------------------------|


E---0---0---0---0---0---0---0---0-|---0-------0-------0-------0------|
B---------------------------------|-------4--------4------4-----4--0-|
G--2---2---2---2---2---2---2---2--|----------------------------------|
D---------------------------------|-2---2---2---2---2---2---2---2----|
A---------------------------------|----------------------------------|
E---------------------------------|----------------------------------|

E-------0-------0-------0-------0-|---0---0---0---0---0---0---0----0-|
B---2-------2------2-------2------|----------------------------------|
G---------------------------------|--2---2---2---2---2---2---2---2---|
D-4---4---4---4---4---4---4---4---|----------------------------------|
A---------------------------------|----------------------------------|
E---------------------------------|----------------------------------|

E---0---0---0---0---0---0---0---0-|-------0-------0-------0-------0-|
B---------------------------------|---2-------2------2-------2------|
G---------------------------------|---------------------------------|
D---------------------------------|-4---4---4---4---4---4---4---4---|
A---------------------------------|---------------------------------|
E---------------------------------|---------------------------------|
                       Go   sing   too-        loud         make your

E---0---0---0---0---0---0---0---0-|--0---0---0---0---0---0---0---0--|
B---------------------------------|-------4--------4------4-----4--0|
G--2---2---2---2---2---2---2---2--|---------------------------------|
D---------------------------------|-2---2---2---2---2---2---2---2---|
A---------------------------------|---------------------------------|
E---------------------------------|---------------------------------|
 voice    break          sing it    Out etc.

E-------0-------0-------0-------0-|---0---0---0---0---0---0---0----0-|
B---2-------2------2-------2------|----------------------------------|
G---------------------------------|--2---2---2---2---2---2---2---2---|
D-4---4---4---4---4---4---4---4---|----------------------------------|
A---------------------------------|----------------------------------|
E---------------------------------|----------------------------------|
Tap to rate this tab
 
# A B C D E F G H I J K L M N O P Q R S T U V W X Y Z