Jonsi - Boy Lilikoi tab

Tabbed: Damien Radford
Song: Boy Lilikoi
Artist: Jonsi
Tuning: standard 

My version of Jonsi's acoustic WYNC version of Boy Lilikoi. pretty simple, standard tuning.
I tried to put the syllables of the lyrics on the right strokes, listen to the 
track to get it exactly right

Finger picked

Capo on 1


Intro (also same as verse 1 and 2)

E|----------------|----------------|----------------|----------------|
B|----------------|----------------|----------------|----------------|
G|2-------2-------|2-------2-------|1-------2-------|1-------1-------|
D|0-------0-------|2-------2-------|2-------2-------|2-------2-------|
A|----0-------0---|----0-------0---|----0-------0---|----0-------0---|
E|----------------|----------------|----------------|----------------|

E|----------------|----------------|----------------|----------------|
B|----------------|----------------|----------------|0---------------|
G|2-------2-------|2-------2-------|1-------1-------|1-------1-------|
D|0-------0-------|0-------0-------|2-------2-------|--------2-------|
A|----0-------0---|----0-------0---|----0-------0---|----0-------0---|
E|----------------|----------------|----------------|----------------|

E|----------------|----------------|----------------|----------------|
B|----------------|----------------|----------------|----------------|
G|2-------2-------|2-------2-------|1-------2-------|1-------1-------|
D|0-------0-------|2-------2-------|2-------2-------|2-------2-------|
A|----0-------0---|----0-------0---|----0-------0---|----0-------0---|
E|----------------|----------------|----------------|----------------|

E|----------------|----------------|----------------|----------------|
B|----------------|----------------|----------------|----------------|
G|2-------2-------|2-------2-------|----------------|----------------|
D|0-------0-------|0-------0-------|2-------2-------|2-------2-------|
A|----0-------0---|----0-------0---|0-------0-------|0-------0-------|
E|----------------|----------------|----0-------0---|----0-------0---|


Verse 1: 

I want   to      be      a         li      li       koi     boy...
E|----------------|----------------|----------------|----------------|
B|----------------|----------------|----------------|----------------|
G|2-------2-------|2-------2-------|1-------2-------|1-------1-------|
D|0-------0-------|2-------2-------|2-------2-------|2-------2-------|
A|----0-------0---|----0-------0---|----0-------0---|----0-------0---|
E|----------------|----------------|----------------|----------------|

                   Li      li       koi
E|----------------|----------------|----------------|----------------|
B|----------------|----------------|----------------|0---------------|
G|2-------2-------|2-------2-------|1-------1-------|1-------1-------|
D|0-------0-------|0-------0-------|2-------2-------|--------2-------|
A|----0-------0---|----0-------0---|----0-------0---|----0-------0---|
E|----------------|----------------|----------------|----------------|

U grind   you    claw    you      growl   you      howl   una
E|----------------|----------------|----------------|----------------|
B|----------------|----------------|----------------|----------------|
G|2-------2-------|2-------2-------|1-------2-------|1-------1-------|
D|0-------0-------|2-------2-------|2-------2-------|2-------2-------|
A|----0-------0---|----0-------0---|----0-------0---|----0-------0---|
E|----------------|----------------|----------------|----------------|

  fraid            of       hoipol  loi...
E|----------------|----------------|----------------|----------------|
B|----------------|----------------|----------------|----------------|
G|2-------2-------|2-------2-------|----------------|----------------|
D|0-------0-------|0-------0-------|2-------2-------|2-------2-------|
A|----0-------0---|----0-------0---|0-------0-------|0-------0-------|
E|----------------|----------------|----0-------0---|----0-------0---|

x 2


Chorus:

  saay             noo              more             use     your
E|----------------|----------------|----------------|----------------|
B|----------------|----------------|----------------|----------------|
G|2-------2-------|2-------2-------|2-------2-------|2-------2-------|
D|0-------0-------|0-------0-------|0-------0-------|0-------0-------|
A|----0-------0---|----0-------0---|----0-------0---|----0-------0---|
E|----------------|----------------|----------------|----------------|

  eyes    the 	   world goes    in flutter      byyy
E|0-------0-------|----------------|----------------|----------------| 
B|0-------0-------|2-------2-------|3-------3-------|3-------3-------|
G|----------------|1-------1-------|2-------2-------|2-------2-------|
D|----2-------2---|----2-------2---|----2-------2---|----2-------2---|
A|----------------|----------------|----------------|----------------|
E|----------------|----------------|----------------|----------------|

   yyy		   use     your     eyes	     yoo   hoo
E|----------------|----------------|0-------0-------|0-------0-------|
B|3-------3-------|3-------3-------|0-------0-------|0-------0-------|
G|2-------2-------|2-------2-------|----------------|----------------|
D|----2-------2---|----2-------2---|----2-------2---|----2-------2---|
A|----------------|----------------|----------------|----------------|
E|----------------|----------------|----------------|----------------|

   knoooow                  you   aa           aare     
E|----------------|----------------|----------------|----------------| 
B|2-------2-------|2-------2-------|3-------3-------|3-------3-------|
G|1-------1-------|1-------1-------|2-------2-------|2-------2-------|
D|----2-------2---|----2-------2---|----2-------2---|----2-------2---|
A|----------------|----------------|----------------|----------------|
E|----------------|----------------|----------------|----------------|

                   use    your
E|----------------|----------------|
B|3-------3-------|3-------3-------|
G|2-------2-------|2-------2-------|
D|----2-------2---|----2-------2---|
A|----------------|----------------|
E|----------------|----------------|

  eyes  the 	   world goes in flutter      by
E|0-------0-------|----------------|----------------|----------------| 
B|0-------0-------|2-------2-------|3-------3-------|3-------3-------|
G|----------------|1-------1-------|2-------2-------|2-------2-------|
D|----2-------2---|----2-------2---|----2-------2---|----2-------2---|
A|----------------|----------------|----------------|----------------|
E|----------------|----------------|----------------|----------------|

		    use   your      eyes	             yoo   hoo
E|----------------|----------------|0-------0-------|0-------0-------|
B|3-------3-------|3-------3-------|0-------0-------|0-------0-------|
G|2-------2-------|2-------2-------|----------------|----------------|
D|----2-------2---|----2-------2---|----2-------2---|----2-------2---|
A|----------------|----------------|----------------|----------------|
E|----------------|----------------|----------------|----------------|

   knoooow             you   aa     aare     
E|----------------|----------------|----------------|----------------| 
B|2-------2-------|2-------2-------|3-------3-------|3-------3-------|
G|1-------1-------|1-------1-------|2-------2-------|2-------2-------|
D|----2-------2---|----2-------2---|----2-------2---|----2-------2---|
A|----------------|----------------|----------------|----------------|
E|----------------|----------------|----------------|----------------|

E|----------------|--------x-------|
B|3-------3-------|--------x-------|
G|2-------2-------|--------x-------|
D|----2-------2---|--------x-------|
A|----------------|--------x-------|
E|----------------|--------x-------|


verse 2:

while being        wild   boy u    burn      so bright	     you
E|----------------|----------------|----------------|----------------|
B|----------------|----------------|----------------|----------------|
G|2-------2-------|2-------2-------|1-------2-------|1-------1-------|
D|0-------0-------|2-------2-------|2-------2-------|2-------2-------|
A|----0-------0---|----0-------0---|----0-------0---|----0-------0---|
E|----------------|----------------|----------------|----------------|

                  illuminate...
E|----------------|----------------|----------------|----------------|
B|----------------|----------------|----------------|0---------------|
G|2-------2-------|2-------2-------|1-------1-------|1-------1-------|
D|0-------0-------|0-------0-------|2-------2-------|--------2-------|
A|----0-------0---|----0-------0---|----0-------0---|----0-------0---|
E|----------------|----------------|----------------|----------------|

One day           you're out you give up the   fight
E|----------------|----------------|----------------|----------------|
B|----------------|----------------|----------------|----------------|
G|2-------2-------|2-------2-------|1-------2-------|1-------1-------|
D|0-------0-------|2-------2-------|2-------2-------|2-------2-------|
A|----0-------0---|----0-------0---|----0-------0---|----0-------0---|
E|----------------|----------------|----------------|----------------|

you slow            doooown                  heart rate
E|----------------|----------------|----------------|----------------|
B|----------------|----------------|----------------|----------------|
G|2-------2-------|2-------2-------|----------------|----------------|
D|0-------0-------|0-------0-------|2-------2-------|2-------2-------|
A|----0-------0---|----0-------0---|0-------0-------|0-------0-------|
E|----------------|----------------|----0-------0---|----0-------0---|


Chorus:

we all             grow             old             use    your
E|----------------|----------------|----------------|----------------|
B|----------------|----------------|----------------|----------------|
G|2-------2-------|2-------2-------|2-------2-------|2-------2-------|
D|0-------0-------|0-------0-------|0-------0-------|0-------0-------|
A|----0-------0---|----0-------0---|----0-------0---|----0-------0---|
E|----------------|----------------|----------------|----------------|

   life  the 	   world goes in    flutter          byyy
E|0-------0-------|----------------|----------------|----------------| 
B|0-------0-------|2-------2-------|3-------3-------|3-------3-------|
G|----------------|1-------1-------|2-------2-------|2-------2-------|
D|----2-------2---|----2-------2---|----2-------2---|----2-------2---|
A|----------------|----------------|----------------|----------------|
E|----------------|----------------|----------------|----------------|

   yyy		   use   your     life	             yoo   hoo
E|----------------|----------------|0-------0-------|0-------0-------|
B|3-------3-------|3-------3-------|0-------0-------|0-------0-------|
G|2-------2-------|2-------2-------|----------------|----------------|
D|----2-------2---|----2-------2---|----2-------2---|----2-------2---|
A|----------------|----------------|----------------|----------------|
E|----------------|----------------|----------------|----------------|

   knoooow             you    aa    aare     
E|----------------|----------------|----------------|----------------| 
B|2-------2-------|2-------2-------|3-------3-------|3-------3-------|
G|1-------1-------|1-------1-------|2-------2-------|2-------2-------|
D|----2-------2---|----2-------2---|----2-------2---|----2-------2---|
A|----------------|----------------|----------------|----------------|
E|----------------|----------------|----------------|----------------|

                  use    your
E|----------------|----------------|
B|3-------3-------|3-------3-------|
G|2-------2-------|2-------2-------|
D|----2-------2---|----2-------2---|
A|----------------|----------------|
E|----------------|----------------|

   life  the 	world goes in flutter      by
E|0-------0-------|----------------|----------------|----------------| 
B|0-------0-------|2-------2-------|3-------3-------|3-------3-------|
G|----------------|1-------1-------|2-------2-------|2-------2-------|
D|----2-------2---|----2-------2---|----2-------2---|----2-------2---|
A|----------------|----------------|----------------|----------------|
E|----------------|----------------|----------------|----------------|

		   use   your      life	             yoo   hoo
E|----------------|----------------|0-------0-------|0-------0-------|
B|3-------3-------|3-------3-------|0-------0-------|0-------0-------|
G|2-------2-------|2-------2-------|----------------|----------------|
D|----2-------2---|----2-------2---|----2-------2---|----2-------2---|
A|----------------|----------------|----------------|----------------|
E|----------------|----------------|----------------|----------------|

   knoooow             you   aa     aare     
E|----------------|----------------|----------------|----------------| 
B|2-------2-------|2-------2-------|3-------3-------|3-------3-------|
G|1-------1-------|1-------1-------|2-------2-------|2-------2-------|
D|----2-------2---|----2-------2---|----2-------2---|----2-------2---|
A|----------------|----------------|----------------|----------------|
E|----------------|----------------|----------------|----------------|


E|----------------|----------------|
B|3-------3-------|3-------3-------|
G|2-------2-------|2-------2-------|
D|----2-------2---|----2-------2---|
A|----------------|----------------|
E|----------------|----------------|

bridge

E|----------------|----------------|----------------|0-------0-------| 
B|----------------|0-------0-------|2-------2-------|----------------|
G|2-------2-------|----------------|----------------|----------------|
D|----------------|----------------|----------------|----------------|
A|----0-------0---|----0-------0---|----0-------0---|----0-------0---|
E|----------------|----------------|----------------|----------------|

						        E
E|----------------|----------------|----------------|0-------0-------| 
B|----------------|0-------0-------|2-------2-------|----------------|
G|2-------2-------|----------------|----------------|----------------|
D|----------------|----------------|----------------|----------------|
A|----------------|----------------|----------------|----------------|
E|----0-------0---|----0-------0---|----0-------0---|----0-------0---|

  lectricity                        wires are   down	   rain-
E|----------------|----------------|----------------|0-------0-------| 
B|----------------|0-------0-------|2-------2-------|----------------|
G|2-------2-------|----------------|----------------|----------------|
D|----------------|----------------|----------------|----------------|
A|----0-------0---|----0-------0---|----0-------0---|----0-------0---|
E|----------------|----------------|----------------|----------------|

  bow    co        lours 	     fading       to   brown
E|----------------|----------------|----------------|0-------0-------| 
B|----------------|0-------0-------|2-------2-------|----------------|
G|2-------2-------|----------------|----------------|----------------|
D|----------------|----------------|----------------|----------------|
A|----------------|----------------|----------------|----------------|
E|----0-------0---|----0-------0---|----0-------0---|----0-------0---|

Adventurous smile...
E|----------------|----------------|----------------|0-------0-------| 
B|----------------|0-------0-------|2-------2-------|----------------|
G|2-------2-------|----------------|----------------|----------------|
D|----------------|----------------|----------------|----------------|
A|----0-------0---|----0-------0---|----0-------0---|----0-------0---|
E|----------------|----------------|----------------|----------------|

Courageous boy...
E|----------------|----------------|----------------|0-------0-------| 
B|----------------|0-------0-------|2-------2-------|----------------|
G|2-------2-------|----------------|----------------|----------------|
D|----------------|----------------|----------------|----------------|
A|----------------|----------------|----------------|----------------|
E|----0-------0---|----0-------0---|----0-------0---|----0-------0---|

Your antarctic hair...
E|----------------|----------------|----------------|0-------0-------| 
B|----------------|0-------0-------|2-------2-------|----------------|
G|2-------2-------|----------------|----------------|----------------|
D|----------------|----------------|----------------|----------------|
A|----0-------0---|----0-------0---|----0-------0---|----0-------0---|
E|----------------|----------------|----------------|----------------|

Your spirited...
E|----------------|----------------|----------------|0-------0-------| 
B|----------------|0-------0-------|2-------2-------|----------------|
G|2-------2-------|----------------|----------------|----------------|
D|----------------|----------------|----------------|----------------|
A|----------------|----------------|----------------|----------------|
E|----0-------0---|----0-------0---|----0-------0---|----0-------0---|


You are
E|----------------|----------------|----------------|----------------|
B|----------------|----------------|----------------|----------------|
G|2-------2-------|2-------2-------|1-------2-------|1-------1-------|
D|0-------0-------|2-------2-------|2-------2-------|2-------2-------|
A|----0-------0---|----0-------0---|----0-------0---|----0-------0---|
E|----------------|----------------|----------------|----------------|

E|----------------|----------------|----------------|----------------|
B|----------------|----------------|----------------|0---------------|
G|2-------2-------|2-------2-------|1-------1-------|1-------1-------|
D|0-------0-------|0-------0-------|2-------2-------|--------2-------|
A|----0-------0---|----0-------0---|----0-------0---|----0-------0---|
E|----------------|----------------|----------------|----------------|

You are
E|----------------|----------------|----------------|----------------|
B|----------------|----------------|----------------|----------------|
G|2-------2-------|2-------2-------|1-------2-------|1-------1-------|
D|0-------0-------|2-------2-------|2-------2-------|2-------2-------|
A|----0-------0---|----0-------0---|----0-------0---|----0-------0---|
E|----------------|----------------|----------------|----------------|

E|----------------|----------------|----------------|----------------|
B|----------------|----------------|----------------|0---------------|
G|2-------2-------|2-------2-------|1-------1-------|1-------1-------|
D|0-------0-------|0-------0-------|2-------2-------|--------2-------|
A|----0-------0---|----0-------0---|----0-------0---|----0-------0---|
E|----------------|----------------|----------------|----------------|


I generally stop for the falsetto "I want to be a lilikoi.." bit

and then do the whole bridge again once more

finish
Tap to rate this tab
 
# A B C D E F G H I J K L M N O P Q R S T U V W X Y Z