Song name
# A B C D E F G H I J K L M N O P Q R S T U V W X Y Z

Jonsi - Go Do Acoustic tab

This is my own tab of Jónsi's "Go Do" as played by himself in acoustic. This is for a 
standard tuned guitar. The song is complete with all the lyrics. When it says X it's muted 
in the second fret.

This song is very easy when you get the hang of it, and it`s a great song!


E---0---0---0---0---0---0---0---0|---0---0---0---0---0---0---0---0|---0---0---0---0---0---0---0---0|
B--------------------------------|--------------------------------|--------------------------------|
G--------------------------------|--------------------------------|--------------------------------|
D-2---2---2---2---2---2---2---2--|-4---4---4---4---4---4---4---4--|-7---7---7---7---7---7---7---7--|
A--------------------------------|--------------------------------|--------------------------------|
E--------------------------------|--------------------------------|--------------------------------|


E---0-------0-------0-------0----|-------0-------0-------0-------0|-------0-------0-------0-------0|
B-------4-------4-------4-------4|---2-------2------2-------2-----|---5-------5-------5-------5----|
G--------------------------------|--------------------------------|--------------------------------|
D-2---2---2---2---2---2---2---2--|-4---4---4---4---4---4---4---4--|-7---7---7---7---7---7---7---7--|
A--------------------------------|--------------------------------|--------------------------------|
E--------------------------------|--------------------------------|--------------------------------|


E---0---0---0---0---0---0---0---0|-------0-------0-------0-------0|-------0-------0-------0-------0|
B--------------------------------|---2-------2-------2-------2----|---5-------5-------5-------5----|
G--------------------------------|--------------------------------|--------------------------------|
D-X---X---X---X---X---X---X---X--|-4---4---4---4---4---4---4---4--|-7---7---7---7---7---7---7---7--|
A--------------------------------|--------------------------------|--------------------------------|
E--------------------------------|--------------------------------|--------------------------------|
                       Go   sing   too-        loud      make your voice      break     
Sing it out

E---0---0---0---0---0---0---0---0|-------0-------0-------0-------0|-------0-------0-------0-------0|
B--------------------------------|---2-------2-------2-------2----|---5-------5-------5-------5----|
G--------------------------------|--------------------------------|--------------------------------|
D-X---X---X---X---X---X---X---X--|-4---4---4---4---4---4---4---4--|-7---7---7---7---7---7---7---7--|
A--------------------------------|--------------------------------|--------------------------------|
E--------------------------------|--------------------------------|--------------------------------|
                       Go scream, do   shout    Make   an          earthquake...

E-------0-------0-------0-------0|-------0-------0-------0-------0|
B---9-------9-------0-------0----|---7-------7-------5-------5----|
G--------------------------------|--------------------------------|
D-11--11--11--11--2---2---2---2--|-9---9---9---9---7---7---7---7--|
A--------------------------------|--------------------------------|
E--------------------------------|--------------------------------|
 You wish fire     would die and turn          colder

E-------0-------0-------0-------0|-------0-------0-------0-------0|-------0-------0|
B---9-------9-------0-------0----|---7-------7-------5-------5----|---5-------5----|
G--------------------------------|--------------------------------|----------------|
D-11--11--11--11--2---2---2---2--|-9---9---9---9---7---7---7---7--|-7---7---7---7--|
A--------------------------------|--------------------------------|----------------|
E--------------------------------|--------------------------------|----------------|
You wish young    eyes could see you grow       older                           We should-

E-------0-------0-------0-------0|-------0-------0-------0-------0|
B---4-------4-------4-------4----|---2-------2-------2-------2----|
G--------------------------------|--------------------------------|
D-6---6---6---6---6---6---6---6--|-4---4---4---4---4---4---4---4--|
A--------------------------------|--------------------------------|
E--------------------------------|--------------------------------|
 -always                           know that we          can do...

E---0---0---0---0---0---0---0---0|-------0-------0-------0-------0|-------0-------0-------0-------0|
B--------------------------------|---2-------2-------2-------2----|---5-------5-------5-------5----|
G--------------------------------|--------------------------------|--------------------------------|
D-X---X---X---X---X---X---X---X--|-4---4---4---4---4---4---4---4--|-7---7---7---7---7---7---7---7--|
A--------------------------------|--------------------------------|--------------------------------|
E--------------------------------|--------------------------------|--------------------------------|
 ...anything           Go drum,   too proud             Make your  hands ache           
Play it out

E---0---0---0---0---0---0---0---0|-------0-------0-------0-------0|-------0-------0-------0-------0|
B--------------------------------|---2-------2-------2-------2----|---5-------5-------5-------5----|
G--------------------------------|--------------------------------|--------------------------------|
D-X---X---X---X---X---X---X---X--|-4---4---4---4---4---4---4---4--|-7---7---7---7---7---7---7---7--|
A--------------------------------|--------------------------------|--------------------------------|
E--------------------------------|--------------------------------|--------------------------------|
                        Go march  through crowds        Make your  day break...

E-------0-------0-------0-------0|-------0-------0-------0-------0|
B---9-------9-------0-------0----|---7-------7-------5-------5----|
G--------------------------------|--------------------------------|
D-11--11--11--11--2---2---2---2--|-9---9---9---9---7---7---7---7--|
A--------------------------------|--------------------------------|
E--------------------------------|--------------------------------|
 You wish    silence released noisy           drummers

E-------0-------0-------0-------0|-------0-------0-------0-------0|-------0-------0|
B---9-------9-------0-------0----|---7-------7-------5-------5----|---5-------5----|
G--------------------------------|--------------------------------|----------------|
D-11--11--11--11--2---2---2---2--|-9---9---9---9---7---7---7---7--|-7---7---7---7--|
A--------------------------------|--------------------------------|----------------|
E--------------------------------|--------------------------------|----------------|
 You wish white   noise surrendered to          summers                         We should-

E-------0-------0-------0-------0|-------0-------0-------0-------0|-------0-------0-------0-------0|
B---4-------4-------4-------4----|---2-------2-------4-------4----|---5-------5-------7-------7----|
G--------------------------------|--------------------------------|--------------------------------|
D-6---6---6---6---6---6---6---6--|-4---4---4---4---6---6---6---6--|-7---7---7---7---9---9---9---9--|
A--------------------------------|--------------------------------|--------------------------------|
E--------------------------------|--------------------------------|--------------------------------|
 -always                           know that we    can do         every-           -thing

E-------0-------0-------0-------0|-------0-------0-------0-------0|
B---9-------9-------9-------9----|---0-------0-------0-------0----|
G--------------------------------|--------------------------------|
D-11--11--11--11--11--11--11--11-|-2---2---2---2---2---2---2---2--|
A--------------------------------|--------------------------------|
E--------------------------------|--------------------------------|
  Go              do,       you'll know         how to

E-------0-------0-------0-------0|-------0-------0-------0-------0|-------0-------0-------0-------0|
B---5-------5-------5-------5----|---7-------7-------4-------4----|---5-------5-------7-------7----|
G--------------------------------|--------------------------------|--------------------------------|
D-7---7---7---7---7---7---7---7--|-9---9---9---9---6---6---6---6--|-7---7---7---7---9---9---9---9--|
A--------------------------------|--------------------------------|--------------------------------|
E--------------------------------|--------------------------------|--------------------------------|
  Just let yourself,               fall            into             land-           -slide

E-------0-------0-------0-------0|-------0-------0-------0-------0|
B---9-------9-------9-------9----|---0-------0-------0-------0----|
G--------------------------------|--------------------------------|
D-11--11--11--11--11--11--11--11-|-2---2---2---2---2---2---2---2--|
A--------------------------------|--------------------------------|
E--------------------------------|--------------------------------|
  Go              do,       you'll know         how to

E-------0-------0-------0-------0|-------0-------0-------0-------0|-------0-------0-------0-------0|
B---5-------5-------5-------5----|---7-------7-------4-------4----|---5-------5-------5-------5----|
G--------------------------------|--------------------------------|--------------------------------|
D-7---7---7---7---7---7---7---7--|-9---9---9---9---6---6---6---6--|-7---7---7---7---7---7---7---7--|
A--------------------------------|--------------------------------|--------------------------------|
E--------------------------------|--------------------------------|--------------------------------|
  Just let yourself,               give            into             low             tide

E-------0-------0-------0-------0|---0---0---0---0---0---0---0---0|
B---7-------7-------7-------7----|--------------------------------|
G--------------------------------|--------------------------------|
D-9---9---9---9---9---9---9---9--|-X---X---X---X---X---X---X---X--|
A--------------------------------|--------------------------------|
E--------------------------------|--------------------------------|
  Go do!

E---0---0---0---0----------------|-------0-------0-------0-------0|-------0-------0-------0-------0|
B--------------------------------|---2-------2-------2-------2----|---5-------5-------5-------5----|
G--------------------------------|--------------------------------|--------------------------------|
D-X---X---X---X---X--------------|-4---4---4---4---4---4---4---4--|-7---7---7---7---7---7---7---7--|
A--------------------------------|--------------------------------|--------------------------------|
E--------------------------------|--------------------------------|--------------------------------|
                     Tie strings to clouds               Make your own lake              
   Make it-

E---0---0---0---0---0---0---0---0|-------0-------0-------0-------0|-------0-------0-------0-------0|
B--------------------------------|---2-------2-------2-------2----|---5-------5-------5-------5----|
G--------------------------------|--------------------------------|--------------------------------|
D-X---X---X---X---X---X---X---X--|-4---4---4---4---4---4---4---4--|-7---7---7---7---7---7---7---7--|
A--------------------------------|--------------------------------|--------------------------------|
E--------------------------------|--------------------------------|--------------------------------|
 -grow               Throw seeds to sprout               Make your own break             
   Let them-

E-0---------------0--------------|-0---------------0--------------|
B-0---------------9------------- |-5---------------7--------------|
G--------------------------------|--------------------------------|
D-2---------------11-------------|-7---------------9--------------|
A--------------------------------|--------------------------------|
E--------------------------------|--------------------------------|
 -grow                                                     Let them-

E-0---------------0--------------|-0---------------0--------------|
B-0---------------9------------- |-5---------------7--------------|
G--------------------------------|--------------------------------|
D-2---------------11-------------|-7---------------9--------------|
A--------------------------------|--------------------------------|
E--------------------------------|--------------------------------|
 -grow

E-------0-------0-------0-------0|-------0-------0-------0-------0|
B---4-------4-------4-------4----|---5-------5-------5-------5----|
G--------------------------------|--------------------------------|
D-1---1---1---1---1---1---1---1--|-7---7---7---7---7---7---7---7--|
A--------------------------------|--------------------------------|
E--------------------------------|--------------------------------|
                                                                Go-

E-0---------------0--------------|-0---------------0--------------|
B-0---------------9------------- |-5---------------7--------------|
G--------------------------------|--------------------------------|
D-2---------------11-------------|-7---------------9--------------|
A--------------------------------|--------------------------------|
E--------------------------------|--------------------------------|
 -do!                             Endless          summers

E-0---------------0--------------|-0---------------0--------------|
B-0---------------9------------- |-5---------------7--------------|
G--------------------------------|--------------------------------|
D-2---------------11-------------|-7---------------9--------------|
A--------------------------------|--------------------------------|
E--------------------------------|--------------------------------|
  You wish     surprise would never stop       wonders

E--------------------------------|--------------------------------|
B--------------------------------|--------------------------------|
G--------------------------------|--------------------------------|
D--------------------------------|--------------------------------|
A--------------------------------|--------------------------------|
E--------------------------------|--------------------------------|
  You wish       sunrise would never fall        under

E---0-------0-------0-------0----|-------0-------0-------0-------0|-------0-------0|
B-------0-------0-------9-------9|---7-------7------5-------5-----|---5-------5----|
G--------------------------------|--------------------------------|----------------|
D-2---2---2---2---11--11--11--11-|-9---9---9---9---7---7---7---7--|-7---7---7---7--|
A--------------------------------|--------------------------------|----------------|
E--------------------------------|--------------------------------|----------------|
  You wish       sunrise would never fall        under                          We should-

E-------0-------0-------0-------0|-------0-------0-------0-------0|-------0-------0-------0-------0|
B---4-------4-------4-------4----|---2-------2-------4-------4----|---5-------5-------5-------5----|
G--------------------------------|--------------------------------|--------------------------------|
D-6---6---6---6---6---6---6---6--|-4---4---4---4---6---6---6---6--|-7---7---7---7---7---7---7---7--|
A--------------------------------|--------------------------------|--------------------------------|
E--------------------------------|--------------------------------|--------------------------------|
 -always                         know that we      can do          everything

E-------0-------0-------0-------0|---0-0--------------------------|
B---7-------7-------7-------7----|-----0--------------------------|
G--------------------------------|--------------------------------|
D-9---9---9---9---9---9---9---9--|-9---2--------------------------|
A--------------------------------|--------------------------------|
E--------------------------------|--------------------------------|
  Go do!
Tap to rate this tab
 
# A B C D E F G H I J K L M N O P Q R S T U V W X Y Z