Song name
# A B C D E F G H I J K L M N O P Q R S T U V W X Y Z

Jonsi - Boy Lilikoi tab

Jónsi - Boy Lilikoi (Acoustic Cover / Guitar)
Tuned Down One Whole Step   (DGCFAD)

My first tab so go easy.:)



 |       |       |       |        |       |       |       |
|--------------------------------|--------------------------------|
|----1-------1-------1-------1---|--0-------0-------0---0---------|
|----2-------2-------0-------0---|--0-------1-------0---0---------|
|3-------3-----------------------|--------------------------------|
|----------------3-------3-------|--------------------------------|
|--------------------------------|3-----3-------3-----3-----------|
I want to be a lilikoi Boy, Lilikoi


 |       |       |       |        |       |       |       |
|--------------------------------|--------------------------------|
|------1-------1-----1-----1-----|--0-----0-----3-----0---------1-|
|------2-------2-----0-----0-----|--0-----0-----0-----0---------2-|
|--3-------3---------------------|--------------------------3-----|
|------------------3-----3-------|--------------------------------|
|--------------------------------|3-----3-----3-----3-------------|



 |       |       |       |        |       |       |       |
|--------------------------------|--------------------------------|
|------1-------1-------1-----0---|----0-------0---0---------------|
|------2-------0-------0-----0---|----1-------0---0---------------|
|--3-----------------------------|----------------------------3---|
|----------3-------3-------------|--------------------------------|
|--------------------------3-----|3-------3-----3-----------------|



 |       |       |       |        |       |       |       |
|--------------------------------|--------------------------------|
|1-------1-----1-----1-------0---|--0-----3-----0-----------------|
|2-------2-----0-----0-------0---|--0-----0-----0-----------------|
|----3---------------------------|--------------------------------|
|------------3-----3-------------|--------------------------------|
|--------------------------3-----|3-----3-----3-------------------|



 |       |       |       |        |       |       |       |
|--------------------------------|--------------------------------|
|--------------1-----1-------1---|--1-------3-----3-----0-----0---|
|--------------0-----0-------0---|--0-------0-----0-----0-----0---|
|----------3-------3-----3-------|3-----5-------5-----2-----2-----|
|--------------------------------|--------------------------------|
|--------------------------------|--------------------------------|
(Just) say no more, use your eyes, the world goes in flutter by



 |       |       |       |        |       |       |       |
|--------------------------------|--------------------------------|
|--1-----1-----1-----1-----1-----|1-------1---1---1-------3-------|
|--0-----0-----0-----0-----0-----|0-------0---0---0-------0-------|
|3-----3-----3-----3-----3-----3-|----3-----3---3-----5-------5---|
|--------------------------------|--------------------------------|
|--------------------------------|--------------------------------|
Use your eyes, you know you are



 |       |       |       |        |       |       |       |
|--------------------------------|--------------------------------|
|3-----3-------3-------3-----3---|----3-----3-----3---3-----3-----|
|0-----0-------0-------0-----0---|----0-----0-----0---0-----0-----|
|----5-----5-------5-------5-----|5-------5-----5---5-----5-----5-|
|--------------------------------|--------------------------------|
|--------------------------------|--------------------------------|
Use your eyes, the world goes in flutter by


 |       |       |       |        |       |       |       |
|--------------------------------|--------------------------------|
|3-------3-------3-------3-----0-|--------------------------------|
|0-------0-------0-------0-----0-|----0-----0-----0-----0-----0---|
|----5-------5-------5-----2-----|2-----2-----2-----2-----2-----2-|
|--------------------------------|--------------------------------|
|--------------------------------|--------------------------------|
Use your eyes, you know you are

 |       |       |       |        |       |       |       |
|--------------------------------|--------------------------------|
|0-----0-----0-----0-----0-----0-|----0-------1-----1-----1-------|
|0-----0-----0-----0-----0-----0-|----0-------0-----0-----0-------|
|--2-----2-----2-----2-----2-----|2-------3-------3-----3-----3---|
|--------------------------------|--------------------------------|
|--------------------------------|--------------------------------|
Use your eyes, you know you are







 |       |       |       |        |       |       |       |
|--------------------------------|----------------------------0---|
|1-----1-----1-------1-----------|----1-----1-----3-----3-----1---|
|0-----0-----0-------0-----------|----0-----0-----0-----0---------|
|--3-------3-----3---------------|--------------------------------|
|--------------------------------|--3-----3-----3-----3-----3---3-|
|--------------------------------|--------------------------------|
                                   Electricity wires are down...


 |       |       |       |        |       |       |       |
|0---3---3---0-----0-------------|--------------0---0---3---3---0-|
|1---1---1---1-----1-------1-----|--1---3---3---1---1---1---1---1-|
|--------------------------0-----|--0---0---0---------------------|
|--------------------------------|--------------------------------|
|--3---3---3---3-----------------|--------------------------------|
|------------------------3-----3-|----3---3---3---3---3---3---3---|
I dreamt your real smile shifting for good


 |       |       |       |        |       |       |       |
|--0---0-------------------------|0---0---3---0---0---------------|
|--1---1-----1-----1-----3---3---|1---1---1---1---1---------------|
|------------0-----0-----0---0---|--------------------------------|
|----------3-----3-----3---3---3-|--3---3---3---3-----------------|
|--------------------------------|--------------------------------|
|3---3---------------------------|--------------------------------|
Courageous boy, now you regrow
Tap to rate this tab
# A B C D E F G H I J K L M N O P Q R S T U V W X Y Z