Song name
# A B C D E F G H I J K L M N O P Q R S T U V W X Y Z

Jorane - Nouvelle tab

Official Artist Site: http://www.jorane.com/
-------------------------------------------------------------------------------
			     Nouvelle - Jorane 
-------------------------------------------------------------------------------
Tabbed by: neuroxik
Email: neuroxik{at}gmail{dot}com
album: 16mm

Tuning: Drop D (DADGBe)

* the slide from 1 to 3 is on a fretless, so it won't sound exactly the same.
  You can either bend the string a whole step and maintain it along when 
  plucking the other note, or just slide it as tabbed.

Intro
Riff A                                                      end riff A
    Dm      Eb         Dm      Eb         Gm    Eb       Bb       Eb
e|------------------|------------------|--------------|--------------||------|
B|------------------|------------------|--------------|--------------||------|
G|------------------|------------------|-----3--------|--------------||------|
D|------15------17--|------15------17--|-----5-----5--|----12-----5--||-(x2)-|
A|------12------13--|------12------13--|-----5-----1--|-----8-----1--||------|
D|--12--12--13--13--|--12--12--13--13--|--5--5--1--1--|--8--8--1--1--||------|

e|-----------------|---------------------------------------------------------|
B|-----------------|---------------------------------------------------------|
G|-----------------|---------------------------------------------------------|
D|---------7-----8-|---------------------------------------------------------|
A|-----------------|---------------------------------------------------------|
D|--1-1/3*----5----|---------------------------------------------------------|
Tap to rate this tab
# A B C D E F G H I J K L M N O P Q R S T U V W X Y Z