Song name
# A B C D E F G H I J K L M N O P Q R S T U V W X Y Z

Jordin Sparks - Tattoo Acoustic tab

Hello! I'm sure this is 100% correct, I've been playing this in a band so I know its correct :)

This is the alternative electric guitar fills :

Tips: Barré the 2nd fret 


                This is the ''D'' chord
E|------------------5-------------------------------------------|
B|------3-----3----------3-----3--------------------------------|
G|---2----2-----2-----------2-----------------------------------|
D|--------------------------------------------------------------|
A|--------------------------------------------------------------|
E|--------------------------------------------------------------|
               This is the ''A'' chord
E|------------------5-------------------------------------------|
B|------2-----2----------2-----2--------------------------------|
G|---2----2-----2-----------2-----------------------------------|
D|--------------------------------------------------------------|
A|--------------------------------------------------------------|
E|--------------------------------------------------------------|
         This is the ''D'' chord again because the electric guitar   plays along with the keyboard
E|------------------5-------------------------------------------|
B|------3-----3----------3-----3--------------------------------|
G|---2----2-----2-----------2-----------------------------------|
D|--------------------------------------------------------------|
A|--------------------------------------------------------------|
E|--------------------------------------------------------------|
                 This is the ''G'' chord
E|------------------5-------------------------------------------|
B|------3-----3----------3-----3--------------------------------|
G|---0----0-----0-----------0-----------------------------------|
D|--------------------------------------------------------------|
A|--------------------------------------------------------------|
E|--------------------------------------------------------------|

Play the fills in the verse and then with an electic guitar, lay the chords in the chorus!

Intro D A BM G x2

D               
No matter what you say about love   
A 
I keep coming back for more        
Bm
Keep my head in the fire
G
Sooner or later I get what I'm asking for

D
No matter what you say about life
A 
I learn everytime I bleed
Bm 
The truth is a stranger
G 
My soul is in danger

                        Am 
I gotta let my spirit be free
 To admit that I'm wrong
C 
And then change my mind
Am 
Sorry but I have to move on
           C
And leave you behind

D 
I can't waste time
 So give it a moment
A 
I realize nothing's broken
Bm 
No need to worry about everything I've done
G 
Live every second like it was my last one
D 
Don't look back, got a new direction
A 
I loved you once, I needed protection
Bm 
You're still a part of everything I do
G 
You're on my heart just like a tattoo
 (electric guitar fill)
Just like a tattoo, I'll always have you ( I always have you)
 
D
I'm sick of playing all of these games
A 
It's not about taking sides
Bm 
When I looked in the mirror
G 
It didn't deliver
                                Am
It hurt enough to admit that I could
 Stop, admit that I'm wrong
          C
And then change my mind
Am 
Sorry but I've gotta be strong
C 
And leave you behind
 
D
I can't waste time
 So give it a moment
A 
I realize nothing's broken
Bm 
No need to worry about everything I've done
G 
Live every second like it was my last one
D 
Don't look back, got a new direction
A 
I loved you once, I needed protection
Bm 
You're still a part of everything I do
G 
You're on my heart just like a tattoo 
Just like a tattoo, I'll always have you
Em 
If I live every moment
G 
It won't change
Bm 
Every moment is still a thought
A 
Of me and you
Em 
I will never regret you
G 
Still the memory of you
Bm                    
Marks everything I do
 
D
Can't waste time
 So give it a moment
A 
I realize nothing's broken
Bm 
No need to worry about everything I've done
G 
Live every second like it was my last one
D 
Don't look back, got a new direction
A 
I loved you once, I needed protection
Bm 
You're still a part of everything I do
G 
You're on my heart just like a tattoo

D 
Can't waste time
A 
So give it a moment
Bm 
I realize nothing's broken
 G
No need to worry about everything I've done
 Live every second like it was my last one

D
Don't look back, got a new direction
A 
I loved you once, and I needed protection
Bm 
You're still a part of everything I do
G 
You're on my heart just like a tattoo
                     C                D 
Just like a tattoo, I'll always have you

There you got it.
Please comment if I've done any mistakes :)
Tap to rate this tab
 
# A B C D E F G H I J K L M N O P Q R S T U V W X Y Z