Song name
# A B C D E F G H I J K L M N O P Q R S T U V W X Y Z

Jordin Sparks - No Air tab

Tabbed & Arranged by: Josh Daley

Tuning:  E A D G C F  - Capo 1



Intro:

------------------------------|
--17^16----17^16----------14--|
--------17-------17---17------|
------------------------------|
------------------------------|

------------------------------|
--15^14----15^14----------12--|
--------15-------15---15------|
------------------------------|
------------------------------|

------------------------------|
--14^12----14^12--------------|
--------12-------12---12--14--|
------------------------------|
------------------------------|



Chords:

  F  Cm9  Gm  Bb
--0---0---0---0---|
--0---0---0---0---|
--2---3---3---3---|
--3---1---5---3---|
--3---3---5---1---|
--1---------------|

Chord progression throughout: F , Cm9 , Gm , Bb
Tap to rate this tab
 
# A B C D E F G H I J K L M N O P Q R S T U V W X Y Z