Song name
# A B C D E F G H I J K L M N O P Q R S T U V W X Y Z

Jorge Negrete - Ay Jalisco tab

There's no tab for Ay Jalisco, so here it is. Might not be the best, but it's a great 
song to learn! Please comment if something's not correct, and correct it! Gracias.

fp=fingerpicking

e|------------------------------------------------------------------------------------|
B|-------------------------1--0-----1---------1--0--1---3--0--------------------------|
G|-------------0--2-2---2--------2----0---00-------------------0--2--0----------------|
D|--2-2-2---3------------------------------------------------------------3--2---------|
A|------------------------------------------------------------------------------------|
E|------------------------------------------------------------------------------------|

There are only three chords with a back and forth finger picking rhythm going on. Here 
are the alternations:

C chord (add G)
e|-------------------------------------------------------------------------------|
B|---1-----1---------------------------------------------------------------------|
G|---0-----0---------------------------------------------------------------------|
D|---2-----2---------------------------------------------------------------------|
A|-3-----------------------------------------------------------------------------|
E|-------3-----------------------------------------------------------------------|

G Chord
e|----3-----3--------------------------------------------------------------------|
B|----0-----0--------------------------------------------------------------------|
G|----0-----0--------------------------------------------------------------------|
D|-------------------------------------------------------------------------------|
A|--------2----------------------------------------------------------------------|
E|--3----------------------------------------------------------------------------|


Fmajor Chord
e|---------------------------------------------------------------------------------|
B|----1-----1----------------------------------------------------------------------|
G|----2-----2----------------------------------------------------------------------|
D|----3-----3----------------------------------------------------------------------|
A|--------3------------------------------------------------------------------------|
E|--1------------------------------------------------------------------------------|

C (fingerpicking)
Ay !, jalisco, jalisco, jalisco,
                                                         G (fingerpicking)
Tu tienes tu novia que es guadalajara,

Muchacha bonita, la perla mas rara,
                                                    C (fingerpicking)
De todo jalisco es mi guadalajara.

C (fingerpicking)
Y me gusta escuchar los mariachis,
                                                G fingerpicking
Cantar con el alma sus lindas canciones,

Oir como suenan esos guitarrones
                                                           C (fingerpicking)
Y echarme un tequila con los valentones.

F(fp)         C(fp)
Ay !, jalisco no te rajes,
              G(fp)                         C(fp)
Me sale del alma cantar con calor,
F                                                  C
Abrir todo el pecho pa' echar este grito,
                     G                             C
Que lindo es jalisco, palabra de honor.


Here are the rest of the lyrics depending on which version se gustan:

Pa' mujeres jalisco primero
Lo mismo en los altos que alla en la caƱada,
Mujeres muy lindas rechulas de cara,
Asi son las hembras en guadalajara.

En jalisco se quiere a la buena
Porque es peligroso querer a la mala,
Por una morena echar mucha bala
Y bajo la luna cantar en chapala.

Ay !, jalisco no te rajes ...

Ay ! jalisco, jalisco, jalisco,
Tus hombres son machos y muy cumplidores,
Valientes y ariscos y sostenedores,
No admiten rivales en cosas de amores.

Es tu orgullo tu traje de charro,
Llevar tu pistola fajada en el cinto,
Tener tu guitarra pa' echar mucho tipo
Y a los que presumen quitarles el hipo.

Ay !, jalisco no te rajes ...

Abrir todo el pecho pa' echar este grito,
Que lindo es jalisco, palabra de honor.
Tap to rate this tab
# A B C D E F G H I J K L M N O P Q R S T U V W X Y Z