Jorn - The Day The Earth Caught Fire tab

Artist:    Jorn
Song:      The Day the Earth Caught Fire
Album:     Starfire
Tabbed by: xHellbound


Guitar Intro

|----------|--------------------|--------------------|
|----------|--------------------|--------------------|
|----------|--------------------|--------------------|
|-----9----|-----9--------------|-----9--------------|
|--9--7----|--9--7----10---9----|--9--7----10---9----|
|--7-------|--7-------8----7----|--7-------8----7----|

Keyboard Intro

|---------------------------------------------|
|--7---7--8-8----7---7--8-8--------7-8-7------|
|----9-------------9-------------9-------9----|
|------------------------------9-----------9--|
|---------------------------------------------|
|---------------------------------------------|



Verse 1

|---------------------------------|
|----------------------8-8p7------|
|----------------------------7-9--|
|-----9-------9-------------------|
|--9--7----9--7----10----------9--|
|--7-------7-------8-----------7--|

|---------------------------|
|---------------------------|
|---------------------------|
|-----9------------9-9-9-9--|
|--9--7----7-7-7-7-7-7-7-7--|
|--7------------------------|
 PM        ...............

|-------------------------------------|
|-------------------------------------|
|-------------------------------------|
|--------------------------------9----|
|--7-7----7-7-9-10-9-----------9---9--|
|---------------------10----10--------|

|-------------------------------------|
|-------------------------------------|
|-------------------------------------|
|--------------------------------9----|
|--7-7----7-7-9-10-9-----------9---9--|
|---------------------10----10--------|



Verse 2

|------------------------------|
|-------------------8-8p7------|
|-------------------------7-9--|
|--9-------9-------------------|
|--7----9--7----10----------9--|
|-------7-------8-----------7--|

|---------------------------|
|---------------------------|
|---------------------------|
|-----9------------9-9-9-9--|
|--9--7----7-7-7-7-7-7-7-7--|
|--7------------------------|
 PM        ...............

|-------------------------------------|
|-------------------------------------|
|-------------------------------------|
|--------------------------------9----|
|--7-7----7-7-9-10-9-----------9---9--|
|---------------------10----10--------|

|----------------------------|
|----------------------------|
|----------------------------|
|-------------------------9--|
|--7-7----7-7-9-10-9------7--|
|---------------------10-----|



Chorus

|-----------------------------------------------|
|-----------------------------------------------|
|-----------------------------------------------|
|--9-9-7-9-x-x-9-9-7-9-x-x-9-9-7-9-x-x-9-9-7-9--|
|--7-7-5-7-x-x-7-7-5-7-x-x-7-7-5-7-x-x-7-7-5-7--|
|-----------------------------------------------|

|-----------------------|
|-----------------------|
|-----------------------|
|-------7------------7--|
|--5----5----7----9--5--|
|--3---------5----7-----|



Guitar Break

|-----------------------------|
|-----------------------------|
|-----------------------------|
|--9-----------------9-9-9-9--|
|--7--10--9--7-7-7-7-7-7-7-7--|
|-----8---7-------------------|
          PM ...............

Keyboard Break

|----------------------------------------------------|
|------7-8-7------------7-8-7-------------7-8-7------|
|----9-------9--------9-------9---------9-------9----|
|--9-----------9----9-----------10----9-----------9--|
|----------------------------------------------------|
|----------------------------------------------------|



Verse 3

|------------------------------|
|-------------------8-8p7------|
|-------------------------7-9--|
|--9-------9-------------------|
|--7----9--7----10----------9--|
|-------7-------8-----------7--|

|---------------------------|
|---------------------------|
|---------------------------|
|-----9------------9-9-9-9--|
|--9--7----7-7-7-7-7-7-7-7--|
|--7------------------------|
 PM        ...............

|-------------------------------------|
|-------------------------------------|
|-------------------------------------|
|--------------------------------9----|
|--7-7----7-7-9-10-9-----------9---9--|
|---------------------10----10--------|

|----------------------------|
|----------------------------|
|----------------------------|
|-------------------------9--|
|--7-7----7-7-9-10-9------7--|
|---------------------10-----|



Chorus



Guitar Solo Rhythm (listen for variations)

|---------------------------------------|
|---------------------------------------|
|---------------------------------------|
|---------------------------------------|
|--7----7----7----7----7---7---7---7----|
|----10---10---10---10---8---8---8---8--|

|-----------------------------------|
|-----------------------------------|
|-----------------------------------|
|-----------------------------------|
|--7---7---7---7---7---7---7---7----|
|----7---7---7---7---5---5---5---5--|



Chorus

|-----------------------------------------------|
|-----------------------------------------------|
|-----------------------------------------------|
|--9-9-7-9-x-x-9-9-7-9-x-x-9-9-7-9-x-x-9-9-7-9--|
|--7-7-5-7-x-x-7-7-5-7-x-x-7-7-5-7-x-x-7-7-5-7--|
|-----------------------------------------------|

|---------------------------|
|---------------------------|
|---------------------------|
|-------7------------7--9\--|
|--5----5----7----9--5--7\--|
|--3---------5----7---------|


|----------------|--------------|
|----------------|--------------|
|----------------|--------------|
|--9-9-7-9-------|--------------|
|--7-7-5-7--10\--|--10-10-9-10--|
|-----------8\---|--8--8--7-8---|



Chorus/Guitar Solo

|-----------------------------------|----------------------|
|-----------------------------------|----------------------|
|-----------------------------------|----------------------|
|-----------------------------------|--9-9-7-9----9-9-7-9--|
|--10---------------7---------------|--7-7-5-7----7-7-5-7--|
|--8---8-8-8-8-8-8--5--5-5-5-5-5-5--|----------------------|
 PM    ...........     ...........



Outro

|-----------|
|-----------|
|-----------|
|--9-9-7-9--|
|--7-7-5-7--|
|-----------|
Tap to rate this tab
 
# A B C D E F G H I J K L M N O P Q R S T U V W X Y Z