Song name
# A B C D E F G H I J K L M N O P Q R S T U V W X Y Z

Jose Alfredo Jimenez - Caminos De Guanajuato chords

Highlighted       Show chord diagrams
I prefer to play this with the capo on the 2nd fret but it works just as fine without it.

Prefiero tocar esto con el capo en el 2nd traste pero suena igual de bien sin el.

Intro:
|-0-4--0-4-2-0-2-------------------------|
|----------------4--5-2-4-5-2-4-5-4-2-0--|
|----------------------------------------|
|----------------------------------------|
|----------------------------------------|
|----------------------------------------|

|----------------------------------------|
|---2----2-------------------------------|
|-1----1---4-3-4----4-----4-----4--------|
|----------------4----4-6---4-6---6-4-2--|
|----------------------------------------|
|----------------------------------------|

Chords: E, B

   
    E
No vale nada la vida

                 B  
la vida no vale nada
comienza siempre llorando

                    E  
y así llorando se acaba

                        B
por eso es que en este mundo

                 E
la vida no vale nada.


Bonito León Guanajuato

                   B
su feria con su jugada
ahí se apuesta la vida

                      E
y se respeta al que gana

                        B
alla en mi León Guanajuato

                 E
la vida no vale nada.

|-0-4--0-4-2-0-2-------------------------|
|----------------4--5-2-4-5-2-4-5-4-2-0--|
|----------------------------------------|
|----------------------------------------|
|----------------------------------------|
|----------------------------------------|

|----------------------------------------|
|---2----2-------------------------------|
|-1----1---4-3-4----4-----4-----4--------|
|----------------4----4-6---4-6---6-4-2--|
|----------------------------------------|
|----------------------------------------|


E
Camino de Guanajuato

                       B
que pasas por tantos pueblos
no pases por Salamanca

                         E
que ahí me hiere el recuerdo

                B
vete rodeando vereda

                    E
no pases porque me muero.

El cristo de tu montaña

                  B
el cerro del cubilete
consuelo de los que sufren

                 E
adoración de la gente

                    B
el cristo de tu montaña

                 E
del cerro del cubilete.

Camino de Santa Rosa

                   B
la sierra de Guanajuato
ahí nomas tras lomita

                 E
se ve Dolores Hidalgo

                   B
yo ahí me quedo paisano

                    E
allí es mi pueblo adorado
Tap to rate this tab
# A B C D E F G H I J K L M N O P Q R S T U V W X Y Z