Song name
# A B C D E F G H I J K L M N O P Q R S T U V W X Y Z

Jose Feliciano - Gypsy tab

Gypsy
Jose Feliciano
Tabbed by Almir Nametak (with help from crmrz)
mokra@starmo.co.uk, July 2013


Bm/D:    xx0432
F#msus4: 242422
F#7:     242322

intro:
E|---------------------0----9----0----------------2------|
B|--------------------2---11-11---2---------------2------|
G|-------------------3--11-----11--3--------------3------|
D|----------------2-4---------------4-2-----------5------|
A|------------1-4----------------------4-1--------5------|
E|-2-2-2--0-2-----------------------------2-1-2/3-3------|

E|-------------------------------------------------------|
B|-----------------0-2-3-5-------------------------------|
G|--------------0-2-------6-7-4-6-4----------------------|
D|---------0-2-4-----------------7-5-7-4-5-4-------------|
A|----0-2-4-------------------------------7-5-7-4-5-2-4--|
E|-2-3---------------------------------------------------|

E|-------------------------------------------------------|
B|-------------------------------------------------------|
G|-------------------------------------------------------|
D|-------------------------------------------------------|
A|-0-2p4h2h0-4h2h0-4h2h0-4h2h0-4h2h0-4h2h0-4h2h0-4h2h0---|
E|----------3-----3-----3-----3-----3-----3-----3-----3--|

E|------------------------------------------2------------|
B|------------------------------------------2------------|
G|------------------------------------------3------------|
D|------------------------------------------2------------|
A|-0p2h0-0p2h0-0p2h0-0p2h0-0----------------4------------|
E|------4-----4-----4-----3----3-2-3--2--0--2------------|


E|-------------------------------------------------------|
B|----------3--------------------------------------------|
G|------4-----4---4---x8---------------------------------|
D|----4---4-----4-----------4-2-0------------------------|
A|--2----------------------------4-2---------------------|
E|-------------------------------------------------------|


Bm          Em            F#msus4 F#7
I'm just a gypsy who gets paid

Bm          Em            F#msus4 F#7
For all the songs that I have played

G                               F#7
And all the records that I have made

Bm          Em            F#msus4 F#7
I'm part of a caravan

Bm          Em            F#msus4 F#7
I have travelled on the land

       A     G            F#7
Making music for my fellow man

G                               F#7
And every song I played or wrote

G                   F#7    B7
With a sad or happy note

Em                        Bm/D
Some are made to make you laugh
                           F#msus4
Some are made to make you cry

F#7                     Bm   B7
I don't know the reason why

Em                        Bm/D
Some are made to make you laugh
                           F#msus4
Some are made to make you cry

F#7                      Bm
I don't know the reason why



E|-------------2------2-0----------|
B|-------------3-----3---3---------|
G|-------------4----4--------------|
D|--4-5-4-2-0--4---4---------------|
A|-----------4-2-------------------|
E|---------------------------------|


                      F#msus4 F#7
But I'll continue to travel
                           Bm         B7
Though my guitar's old and tiring fast

Em
She just listens to me

Bm/D                            F#msus4 F#7           Bm     B7
Her music means more to me than any other woman I have known

Em
She just listens to me

Bm/D                              F#msus4 F#7           Bm
Her music means more to me than any other woman I have known



E|-22222222222222222222222222255555555555555555555555333333333332222000000--2-2-|
B|----------2--3--2-------3------------5-7-5-----5----------0----0---0------2-2-|
G|-------4-----------4--------------6---------6----------0-----0---0---0----4-4-|
D|----4--------------------------7--------------------0---------------------2-3-|
A|-2--------------------------0---------------------------------------------4-4-|
E|--------------------------------------------------------------------------2-2-|



E|-2-------------------------------0-------------------------------3-|
B|-3-------------------------------2-------------------------------3-|
G|-4-------------------------------2-------------------------------0-|
D|-4----0-2-4-4-2-0-2-0-0----------2------0-2-2-0-0----------------0-|
A|-2-2-4---------------4-4-2-4-2-0-0-0-2-4-------4-4-2-4-2-0-2-0---2-|
E|---------------------------------------------------------------2-3-|



E|----------------------------2----2-------|
B|----------------------------2----2-------|
G|----------------------------4----3-------|
D|-------0--------------------2----2-------|
A|--0-2-4-4-2-4-2-0-2-0-0-----4----4-------|
E|-3-------------------3-3-0--2----2-------|



                      F#msus4 F#7
But I'll continue to travel
                           Bm         B7
Though my guitar's old and tiring fast

Em
She just listens to me

Bm/D                            F#msus4 F#7           Bm     B7
Her music means more to me than any other woman I have known

Em
She just listens to me

Bm/D                              F#msus4 F#7           G          F#7
Her music means more to me than any other lady I have known i have known



Will add outro solo at some point

Thanks
Almir
Tap to rate this tab
# A B C D E F G H I J K L M N O P Q R S T U V W X Y Z