Song name
# A B C D E F G H I J K L M N O P Q R S T U V W X Y Z

Jose Feliciano - Paso La Vida Pensando tab

BY DHARWIN AARON
SONG TITLE PASO LA VIDA
ARTIST JOSE FELICIANO

ESPERO LES GUSTE ESTA CANCION DE ESTA FORMA GRACIAS.

E--0---------0------------------3----|
B------3---------3--------------1----|
G----0---0-----0---0-------2----2----|
D------------------------3------1----|
A--3---------3---------3--------3----|
E------------------------------------|

E--0---------0------------------0----|
B------3---------3--------------0----|
G----0---0-----0---0-------2----2----|
D------------------------3------3----|
A--3---------3------------------3----|
E----------------------1--------1----|

E-------------0-----------------0---------3-----1------3--------------|
B-----1---0-------------1---0-------------------1-------------1-----4-|
G---0---0---0---0-----0---0---0---0-----2---2---2----0---0---2-----3--|
D-------------------------------------0---------0---------------3-----|
A--3----------------0-------------------------------------------------|
E----------------------------------------------------3----------------|
Yo te llevo muy     dentro de mi la locura que       vivi por ti

E-------------0-----------------0---------1-----3------3--------------|
B-----1---0-------------1---0-------------------1-------------1-----4-|
G---0---0---0---0-----0---0---0---0-----2---2---2----0---0---2-----3--|
D-------------------------------------0---------0---------------3-----|
A--3----------------0-------------------------------------------------|
E----------------------------------------------------3----------------|
Aun se alberga en mi corazon  Te     deje partir, no me explico la razon...porque

C               CMaj7  (bajeo en G 6 cuerda en el tercer traste)
Paso la vida pensando
Am7                             Dm7
paso las noches soņando con tu amor
   G        *   G6
eiehhhh.....porque

C               CMaj7  (bajeo en G 6 cuerda en el tercer traste)
Paso la vida pensando
Am7                             Dm7
paso las noches soņando con tu amor
        G#  G  INTRO
Con tu amor    con tu amor

E---------------0--------------0--------------1----3------3---|
B-----1---1p0-------------1----1-------------------1------3---|
G---0---0-----0---0-----2---2--0------------2---2--2------0---|
D------------------------------2-----------0-------0------0---|
A--3-------------------0-------0--------------------------2---|
E---------------------------------------------------------3---|
Fue mi orgullo o mi      estupidez  que me entorpecio,no tuve sensatez

         C    CMaj7      Am  Am7
quiza no supe        valorar    tu amor

       Dm7 D7sus4             G          *       G6
aunque te        ofendí te suplico tu perdon...porque

C               CMaj7  (bajeo en G 6 cuerda en el tercer traste)
Paso la vida pensando
Am7                             Dm7
paso las noches soņando con tu amor
   G        *   G6
eiehhhh.....porque

C               CMaj7  (bajeo en G 6 cuerda en el tercer traste)
Paso la vida pensando
Am7                             Dm7
paso las noches soņando con tu amor
        G#  G  C
Con tu amor    con tu amor

Am          C#5          Am
Vienen a mi mente tantas cosas
Em           EmMaj7    Em7   Em E7 Em7
que ni yo me puedo perdonar
Am    C#5        Am           Am7
pero nunca nunca te he dejado
    Dm7   G
de amar

E-------------0-----------------0---------1-----3-----------3---------|
B-----1---0-------------1---0-------------------1-----------3---------|
G---0---0---0---0-----0---0---0---0-----2---2---2-----------0---------|
D-------------------------------------0---------0-----------0---------|
A--3----------------0---------------------------------------2---------|
E-----------------------------------------------------------3---------|
Yo te llevo muy     dentro de mi      y si tu me llevas muy dentro de ti

           C     CMaj7          Am       Am7
los dos sufrimos         igual decepciķn
         Dm7    D7sus4        G     *   G6
y el separarnos       fue una tonta decision...porque

C               CMaj7  (bajeo en G 6 cuerda en el tercer traste)
Paso la vida pensando
Am7                             Dm7
paso las noches soņando con tu amor
   G        *   G6
eiehhhh.....porque

C               CMaj7  (bajeo en G 6 cuerda en el tercer traste)
Paso la vida pensando
Am7                             Dm7
paso las noches soņando con tu amor
        G#  G  C
Con tu amor    con tu amor


			E A D G B E
*			3 2 0 0 3 0
G6			3 2 0 0 0 0
C#5			X 3 2 1 1 0
D7sus4		        X 0 0 2 1 3
Tap to rate this tab
# A B C D E F G H I J K L M N O P Q R S T U V W X Y Z