Song name
# A B C D E F G H I J K L M N O P Q R S T U V W X Y Z

Jose Ferrer - Minuet Op 38 No 1 tab

      E.  S E  E  E  E     E  E  Q    E  E     E.  S E  E  E  E     Q    Q    Q     
E||---3-----------------|--3-----3-------7--|--5---3-2--0--------|-----------------|
B||---0-----------------|--1-----0-------8--|--7---5-3--1--3--1--|--1----0---------|
G||*-----------0-----0--|-----0-------------|--------------4--2--|--2----0---------|
D||*--------0-----4-----|--2-----0----------|--0-----------------|-------0----0----|
A||-------2-------------|-------------------|--------------------|-----------------|
E||---3-----------------|-------------------|--------------------|--3--------------|


  E.  S E  E  E  E     Q    E.  S Q       Q    E  E    E  E     Q    Q    Q     
--------------------|-------2---3-5----|-------0--2--5g3-----|--3----2---------|
--------------------|-------3---5-7----|-------2--3----5--5--|--5----3---------|
--------------------|------------------|------------------6--|-----------------|
--5---4-2--0--------|------------------|---------------------|--0--------------|
--------------4--2--|--0---------------|--0------------------|-----------------|
--------------------|------------------|---------------------|-----------------|


  E  E  E  E  E  E     E  E  E  E  E  E     E  E  E  E  E  E     E  E  E  E  E  E   
-----5--5-----------|-----3--3--3--3--3--|-----3--3-----------|-----0--------------|
--------------------|-----0--0--0--0--0--|--------------------|--------------------|
-----5--5-----------|--0-----------------|-----2--2-----------|-----0--------------|
--0--------0--4--0--|--------------------|--------------1-----|--2-----------------|
--------------------|--------------------|--2--------2-----2--|--------------0--2--|
--------------------|--------------------|--------------------|--------0--3--------|


  Q    E  E  E  E     Q    E.  S Q       E  E  Q    Q       E  E  Q    Q         E  E  E  E  Q     
--0----------------|-------3---5-7----|--5-----3----2----|--2-----3----------||-----2--2--2--2----|
-------------------|------------------|-------------1----|--1-----0----------||--------3--3--3----|
--0----------------|-------4---5-7----|--5-----4---------|--0---------------*||--------2--2--2----|
-------------------|--0---------------|--------0----0----|-----0------------*||--0----------------|
--3----0--2--3--4--|------------------|--0--3------------|-------------------||-------------------|
-------------------|------------------|------------------|--------3----------||-------------------|


  E  E  E  E  Q       E    E  E  E  E  E     E  E  Q    E  E     E  E  E  E  Q     
-----3--3--3--3----|-----5g3--2--3--5--7--|--5--3--2----------|-------------------|
--------3--3--3----|----------------------|-----0-------------|-----1--1--1--1----|
--------4--4--4----|-------4--3--4--5--7--|--5-----2----------|--------2--2--2----|
--0----------------|--0-------------------|--0----------------|--------0--0--0----|
-------------------|----------------------|-------------0-----|-------------------|
-------------------|----------------------|----------------3--|--2----------------|


  E  E  E  E  Q       E.  S Q    Q       Q    E  E   E  E     Q    E  E   E  E     Q    Q    Q     
-------------------|--0-----3----2----|--3-----------------|--------------------|-----------------|
-----0--0--0--0----|--1-----0----1----|--0-------3h--5--3--|----------0h--1--0--|-----------------|
--------0--0--0----|--0---2-----------|--0-------4h--5--4--|--4-----------------|--0--------------|
--------0--0--0----|--------0----0----|--------------------|--5-------0h--2--0--|-----------------|
-------------------|--3---L-----------|--------------------|--------------------|--2--------------|
--3----------------|------------------|--------------------|--------------------|-----------------|


  Q    Q    Q       H        Q      
-----------------|----------------||
--3----0---------|----------------||
--4----0----2----|--0-------------||
------------0----|----------------||
-----------------|--2-------------||
-----------------|--3-------------||




Duration Legend
---------------
W - whole
H - half
Q - quarter
E - 8th
S - 16th
T - 32nd
X - 64th
. - note dotted
|-n-|  - n-tuplets


Tablature Legend
----------------
L - tied note
x - dead note
g - grace note
(n) - ghost note
> - accentuded note
NH - natural harmonic
AH - artificial harmonic
TH - tapped harmonic
SH - semi harmonic
PH - pitch harmonic
h - hammer on
p - pull off
b - bend
br - bendRelease
pb - preBend
pbr - preBendRelease
brb - bendReleaseBend
\n/ - tremolo bar dip
\n - tremolo bar dive
-/n - tremolo bar Release up
/n\ - tremolo bar inverted dip
/n - tremolo bar return
-\n - tremolo bar Release down
S - shift slide
s - legato slide
/ -  slide into from below or out of upwards
\ -  slide into from above or out of downwards
~ - vibrato
W - wide vibrato
tr - trill
TP - tremolo picking
T - tapping
S - slap
P - pop
< - fade in
^ - brush up
v - brush down
Tap to rate this tab
 
# A B C D E F G H I J K L M N O P Q R S T U V W X Y Z