Song name
# A B C D E F G H I J K L M N O P Q R S T U V W X Y Z

Jose Gonzalez - How Low tab

Artist: José González
Song: How Low
Album: In Our Nature

Tuning: D A D F# B E (Capo 1)

Verse/Chorus
|---------------------------------|---------------------------------|
|---------0---0---------0---0-----|---------0---0---------0---0-----|
|---------0---0---------0---0-----|---------0---0---------0---0-----|
|---x---x---2-----x---x---2-----x-|---x---x---2-----x---x---2-----x-|
|---------------------------------|---------------------------------|
|-2---2---------2---2---------2---|-2---2---------2---2---------2---|

|---------------------------------|---------------------------------|
|---------0---0---------0---0-----|---------0---0---------0---0-----|
|---------0---0---------0---0-----|---------0---0---------0---0-----|
|---x---x---2-----x---x---2-----x-|---x---x---2-----x---x---2-----x-|
|---------------------------------|---------------------------------|
|-0---0---------0---0---------0---|-2---2---------2---2---------2---|

Interlude
|-2p0---0-------------------------|-2p0---0-------------------------|
|-----3---0-------------0---0-----|-----3---0-------------0---0-----|
|-------------0---------0---0-----|-------------0---------0---0-----|
|-----------2-----x---x---2-----x-|-----------2-----x---x---2-----x-|
|---------------------------------|---------------------------------|
|-2---2---------2---2---------2---|-2---2---------2---2---------2---|

|-2p0---0-------------------------|---------------------------------|
|-----3---0---------------------0-|---------0---0---------0---0-----|
|-------------0---0---0---0-------|---------0---0---------0---0-----|
|-----------2---0---0---0---------|---x---x---2-----x---x---2-----x-|
|---------------------------------|---------------------------------|
|-0---0---------------------------|-2---2---------2---2---------2---|

Bridge
|---------------------------------|---------------------------------|
|---------0---0---------0---0-----|---------3---3---------3---3-----|
|---------1---1---------1---1-----|---------1---1---------1---1-----|
|-----------2-------------2-----2-|-----------2-------------2-----2-|
|-3---3---------3---3---------3---|-0---0---------0---0-------------|
|---------------------------------|-----------------------------0---|

|---------------------------------|---------------------------------|
|---------0---0---------0---0-----|---------0---0---------0---0-----|
|---------0---0---------0---0-----|---------0---0---------0---0-----|
|---x---x---2-----x---x---2-----x-|---x---x---2-------------2-------|
|---------------------------------|---------------------------------|
|-2---2---------2---2---------2---|-2---2---------2---2---------2---|

|---------------------------------|---------------------------------|
|---------0---0---------0---0-----|---------3---3---------3---3-----|
|---------1---1---------1---1-----|---------1---1---------1---1-----|
|-----------2-------------2-----2-|-----------2-------------2-----2-|
|-3---3---------3---3---------3---|-0---0---------0---0-------------|
|---------------------------------|-----------------------------0---|

|---------------------------------|-------------------12------------|
|---------0---0---------0---0-----|---------0---0----------0--------|
|---------0---0---------0---0-----|---------0---0-------10--12------|
|---x---x---2-----x---x---2-----x-|---x---x---2----------------12---|
|---------------------------------|---------------------------------|
|-2---2---------2---2---------2---|-2---2--------/10--------------0-|

Tap to rate this tab
 
# A B C D E F G H I J K L M N O P Q R S T U V W X Y Z