Guitaretab - guitar tabs
Song name
# A B C D E F G H I J K L M N O P Q R S T U V W X Y Z

Jose Gonzalez - Fold tab

Artist: José González
Song: Fold
Album: In Our Nature

Tuning: B A D F# B E

Tap foot on half notes

Verse
|---------------------------------|---------------------------------|
|---------------------0-----------|---------------------0-----------|
|-----0-------0---------------0---|-----0-------0---------------0---|
|-----------------6h7p6-----------|-----------------6h7p6-----------|
|---------7---------------7-------|---------7---------------7-------|
|-0-------------------------------|-0-------------------------------|

|---------------------------------|---------------------------------|
|---------------------0-----------|---------------------0-----------|
|-----0-------0---------------0---|-----0-------0---------------0---|
|-----------------6h7p6-----------|-----------------6h7p6-----------|
|---------7---------------7-------|---------7---------------7-------|
|-0-------------------------------|-0-------------------------------|

|---------------------------------|---------------------------------|
|---------------------0-----------|---------------------0-----------|
|-----0-------0---------------0---|-----0-------0---------------0---|
|-----------------6h7p6-----------|-----------------6h7p6-----------|
|---------7---------------7-------|---------7---------------7-------|
|-7-------------------------------|-5-------------------------------|

|---------------------------------|---------------------------------|
|---------------------0-----------|---------------------0-----------|
|-----0-------0---------------0---|-----0-------0---------------0---|
|-----------------6h7p6-----------|-----------------6h7p6-----------|
|---------7---------------7-------|---------7---------------7-------|
|-0-------------------------------|-0-------------------------------|


Chorus
|---------------------------------|---------------------------------|
|---------0-----------0-------0---|-----0-------0-------0-------0---|
|-----0-----------0---------------|---------------------------------|
|-9-----------9-----------9-------|-7-------6-----------------------|
|---------------------------------|-----------------9-------7-------|
|---------------------------------|---------------------------------|

|---------------------------------|---------------------------------|
|---------------------0-----------|---------------------0-----------|
|-----0-------0---------------0---|-----0-------0---------------0---|
|-----------------6h7p6-----------|-----------------6h7p6-----------|
|---------7---------------7-------|---------7---------------7-------|
|-0-------------------------------|-0-------------------------------|


Bridge
|---------------------------------|---------------------------------|
|---------------------------------|---------------------0-----------|
|---------0-----------0-------0---|---------0-------------------0---|
|-----0-----------0---------------|-----6-------6--h7---------------|
|-9-----------5-----------5-------|-7-----------------------7-------|
|---------------------------------|---------------------------------|

[ Tab from: http://www.guitaretab.com/j/jose-gonzalez/165318.html ]
|---------------------------------|---------------------------------|
|---------------------0-----------|---------------------0-----------|
|-----0-------0---------------0---|-----0-------0---------------0---|
|-----------------6h7p6-----------|-----------------6h7p6-----------|
|---------7---------------7-------|---------7---------------7-------|
|-0-------------------------------|-0-------------------------------|


Outro
|-7-----------7-------------------|---------------------------------|
|---------0-----------0---10------|-9-------7-------5-------7-------|
|-----0-----------0-----------0---|-----0-------0-------0-----------|
|-9-------------------------------|-7-------------------------------|
|---------------------------------|---------------------------------|
|---------------------------------|---------------------------------|

|---------9-----------7-----------|---------------------------------|
|-----7-----------7-----------7---|-10------9-------7-------5-------|
|-------------0-----------0-------|-----0-------0-------0-------0---|
|-7-------------------------------|---------------------------------|
|---------------------------------|---------------------------------|
|---------------------------------|---------------------------------|

|---------------------------------|---------------------------------|
|-7-------------------------------|---------------------------------|
|---------------------------------|---------------------------------|
|---------------------------------|---------------------------------|
|---------------------------------|---------------------------------|
|---------------------------------|---------------------------------|

|-7-----------7-------------------|---------------------------------|
|---------0-----------0---10------|-9-------7-------5-------7-------|
|-----0-----------0-----------0---|-----0-------0-------0-------0---|
|-9-------------------------------|-7-------------------------------|
|---------------------------------|---------------------------------|
|---------------------------------|---------------------------------|

|-------------0---------------0---|---------------------------------|
|-7-------7-------7-------7-------|-7-------------------------------|
|-----0---------------0-----------|---------------------------------|
|-9-------------------------------|---------------------------------|
|---------------------------------|---------------------------------|
|---------------------------------|---------------------------------|

|---------------------------------|---------------------------------|
|-------------0-------------------|-------------0-------------------|
|---------0-------0---------------|---------0-------0---------------|
|-----7---------------7-----------|-----6---------------6-----------|
|-0-------------------------------|---------------------------------|
|---------------------------------|-5-------------------------------|

|---------------------------------|
|-----------------0---------------|
|-------------5-------------------|
|---------4-----------------------|
|-----2---------------------------|
|-0-------------------------------|
Related for Fold tab