Song name
# A B C D E F G H I J K L M N O P Q R S T U V W X Y Z

Jose Gonzalez - Hearbeats tab

-------------------------------------------------------------------------------
			     Hearbeats - Jose Gonzalez
-------------------------------------------------------------------------------
Tabbed by:danguitar123
Email:danielc93@hotmail.co.uk

Tuning: D A D F# B e, weird i know, but it allows for the lower notes and stops you
to stretch as much, making it easier to play

CAPO ON 1ST !!

This song is mainly played with the strumming hand, it is alot easier to use your
than a pick/plectrum for this. It also helps to play the notes gently, this gives a better sound.
The song consists of a main riff and a middle eighty kind of thing. there are slight
at the start of each verse, so listen to the song if you want to know these, but they are
minor changes and dont really affect the timing or sound of the song.

Main Riff

e |-------------------------------------------------------------|
B |-------------------------------------------------------------|
F#|-------------3---------3---------------3---------3-----------|
D |---0-----0---------0---------------0---------0------0--------|
A |-----4h5---5---4h5---5---0-----4h5---5---4h5---5------0-2----|
D |-0-------------------------0---------------------------------|

--------------------------------------------------|
--------------------------------------------------|
------0-----------0-------------0-----------0-----|
--4-----4-----4-------0---0-------0-----0-----0---|
--2-----0h2---0-------------5-----4h5---5---------|
----------------4---5---5-------------------------|

thats that, its hard to write the timing out so you'll have to listen to the song for it.

middle 8

e |--------------------------------------------------------------------------|
B |--------------------------------------------------------------------------|
F#|---------0-----------0-----------0-----------0----------------------------|
D |---0-----------0-----------0-----------0----------------------------------|
A |-------7---7-------7---7-------7---7-------7---7--------------------------|
D |-7---7-------7---7-------7---7-------7---7--------------------------------|

e |--------------------------------------------------------------------------|
B |--------------------------------------------------------------------------|
F#|---------0-----------0-----------0-----------0----------------------------|
D |---0-----------0-----------0-----------0----------------------------------|
A |-------5---5-------5---5-------5---5-------5---5--------------------------|
D |-5---5-------5---5-------5---5-------5---5--------------------------------|

e |--------------------------------------------------------------------------|
B |--------------------------------------------------------------------------|
F#|---------0-----------0-----------0-----------0----------------------------|
D |---0-----------7---7--------0-----------0---------------------------------|
A |-------7---7-----------7-------7---7-------7---7--------------------------|
D |-7---7-------7---7-------7---7-------7---7--------------------------------|

e |--------------------------------------------------------------------------|
B |--------------------------------------------------------------------------|
F#|---------0-----------0-----------0-----------0----------------------------|
D |---0-----------0-----------0-----------0----------------------------------|
A |-------5---5-------5---5-------5---5-------5---5--------------------------|
D |-5---5-------5---5-------5---5-------5---5--------------------------------|

e|---------------------------------------------------------------------------|
B|-----------------------0-----------------------0---------------------------|
G|-----------0-----------0---------0-----3-----------------------------------|
D|-----4---4---4---4---4-----4---4---4-------4-------------------------------|
A|-0-2---2-------2---2-----2---2-------2---2----2----------------------------|
E|---------------------------------------------------------------------------|

Thats it, please rate and comment if you have any suggestions.

| /  slide up
| \  slide down
| h  hammer-on
| p  pull-off
| ~  vibrato
| +  harmonic
| x  Mute note
===============================================================================
Tap to rate this tab
# A B C D E F G H I J K L M N O P Q R S T U V W X Y Z