Song name
# A B C D E F G H I J K L M N O P Q R S T U V W X Y Z

Jose Gonzalez - All You Deliver tab

-----------------------------------------------------------------------------
	             All You Deliver - Jose Gonzalez
-----------------------------------------------------------------------------
Tabbed by: Kasper van Dijk	
Email: kasperkaratekid@hotmail.com

Tuning: D-A-D-G-B-e


Capo on 3d fret
tabbed relative to capo

This is my fist tab, just listen to the song and try to play it.
enjoy :D


e|--------------------------------------------------------------------------|
B|----------------0-------------0--------------0----------------0-----------|
G|---------2----2--------2----2---------2----2-----------2----2-------------|
D|-------2----2--------2----2---------2----2-----------2----2---------------|
A|-----0----0-----0--0----0-----0---3----3-----3--3P0-----------------------|
D|---------------------------------------------------0----0-----0-----------|


e|----------------0-------------0---------------------------------0--0------|
B|----------------0-------------0---0----------0-----------------0----0-----|
G|---------2----2--------2----2---------2----2-----------2------2------2----|
D|-------2----2--------2----2---------2----2-----------2-------2--------2---|
A|-----0----0-----0--0----0-----0---3----3-----3--3P0---------0----------0--|
D|---------------------------------------------------0----0--0------------0-|


e|--------------------------------------------------------------------------|
B|----------------0-------------0--------------0----------------0-----------|
G|---------2----2--------2----2---------2----2-----------2----2-------------|
D|-------2----2--------2----2---------2----2-----------2----2---------------|
A|-----0----0-----0--0----0-----0---3----3-----3--3P0-----------------------|
D|---------------------------------------------------0----0-----0-----------|
       On the verge of ruin           You'll see it all clear |

e|--------------------------------------------------------------------------|
B|----------------0-------------0--------------0----------------0-----------|
G|---------2----2--------2----2---------2----2-----------2----2-------------|
D|-------2----2--------2----2---------2----2-----------2----2---------------|
A|-----0----0-----0--0----0-----0---3----3-----3--3P0-----------------------|
D|---------------------------------------------------0----0-----0-----------|
       How steep the fall is          How long the way back is

e|----------------0----------------------------0------------------0--0------|
B|------------------------------0--------------------------------0----0-----|
G|---------2----2--------2----2---------2----2-----------2------2------2----|
D|-------2----2--------2----2---------2----2-----------2-------2--------2---|
A|-----0----0-----0--0----0-----0---3----3-----3--3P0---------0----------0--|
D|---------------------------------------------------0----0--0------------0-|


e|--------------------------------------------------------------------------|
B|----------------0-------------0--------------0----------------0-----------|
G|---------2----2--------2----2-0-------2----2-----------2----2-------------|
D|-------2----2--------2----2---------2----2-----------2----2---------------|
A|-----0----0-----0--0----0-----0---3----3-----3--3P0-----------------------|
D|---------------------------------------------------0----0-----0-----------|
       On the verge of success         It's all white and fluffy

e|--------------------------------------------------------------------------|
B|----------------0-------------0--------------0----------------0-----------|
G|---------2----2--------2----2-0-------0----0-----------0----0-------------|
D|-------2----2--------2----2---------2----2-----------4----4---------------|
A|-----0----0-----0--0----0-----0---3----3-----3----------------------------|
D|---------------------------------------------------0----0-----0-----------|
       Horizons are blurred            Horizons are blurred 

e|----------------0----------------------------0----------------------------|
B|------------------------------0-------------------------------0-----------|
G|---------2----2--------2----2---------2----2-----------2----2-------------|
D|-------2----2--------2----2---------2----2-----------2----2---------------|
A|-----0----0-----0--0----0-----0---3----3-----3--3P0-----------------------|
D|---------------------------------------------------0----0-----0-----------|


e|---------------0-------------0--------------------------------------------|
B|---------------------------------0-----------0-------------0--------------|
G|--------2----2--------2----2---------2----2-----------2--------2----------|
D|------2----2--------2----2---------2----2-----------2----2----------------|
A|----0----0-----0--0----0-----0---3----3------3--3P0-----------------------|
D|--------------------------------------------------0----0---0--------------|


e|--------------------------------------------------------------------------|
B|----------------0-------------0---------------0----------------0----------|
G|---------2----2--------2----2-0-------2----2-----------2----2-------------|
D|-------2----2--------2----2---------2----2-----------2----2---------------|
A|-----0----0-----0--0----0-----0---3----3------3--3P0----------------------|
D|---------------------------------------------------0----0-----0-----------|
   By the time you reach your goal     Tongues will be twisted

e|--------------------------------------------------------------------------|
B|----------------0-------------0--------------0----------------0-----------|
G|---------2----2--------2----2-0-------2----2-----------2----2-------------|
D|-------2----2--------2----2---------2----2-----------2----2---------------|
A|-----0----0-----0--0----0-----0---3----3-----3--3P0-----------------------|
D|---------------------------------------------------0----0-----0-----------|
          To the point where you'l lose track of your soul 

e|--------------------------------------------------------------------------|
B|----------------0-------------0--------------0----------------0-----------|
G|---------2----2--------2----2-2-------2----2-----------2----2-------------|
D|-------2----2--------2----2---------2----2-----------2----2---------------|
A|-----0----0-----0--0----0-----0---3----3-----3--3P0-----------------------|
D|---------------------------------------------------0----0-----0-----------|
            Distorted pictures         is all you deliver

e|--------------------------------------------------------------------------|
B|----------------0-------------0--------------0----------------0-----------|
G|---------2----2--------2----2---------2----2-----------2----2-------------|
D|-------2----2--------2----2---------2----2-----------2----2---------------|
A|-----0----0-----0--0----0-----0-------------------------------------------|
D|----------------------------------3----3-----3-3P0-0----0-----0-----------|
            Distorted pictures         is all you deliver

e|--------------------------------------------------------------------------|
B|----------------0-------------0--------------0----------------0-----------|
G|---------2----2-2------2----2-2-------2----2-----------2----2-------------|
D|-------2----2--------2----2---------2----2-----------2----2---------------|
A|-----0----0-----0--0----0-----0---3----3-----3--3P0-----------------------|
D|---------------------------------------------------0----0-----0-----------|
 Distorted pictures is all you deliver,Distorted pictures is all you deliver

e|--------------------------------------------------------------------------|
B|---------------0-------------0--------------0-----------------0-0---------|
G|--------2----2--------2----2-0-------0----0-----------0------0---0-------0|
D|------2----2--------2----2---------2----2-----------4-------4-----4-----4-|
A|----0----0-----0--0----0-----0---3----3-----3--------------0-------0---0--|
D|--------------------------------------------------0----0--0---------0-0---|
       Distorted pictures is all you deliver



(Tap your strings with your finger)

e|---0---0-0-0-0--0--0---0-0-0-0--0--0---0-0-0-0--0--0---0-0-0-0--0-|
B|---0---0-0-0-0--0--0---0-0-0-0--0--0---0-0-0-0--0--0---0-0-0-0--0-|
G|---2---2-2-2-2--2--2---2-2-2-2--2--0---0-0-0-0--0--0---0-0-0-0--0-| x4
D|---2---2-2-2-2--2--2---2-2-2-2--2--0---0-0-0-0--0--0---0-0-0-0--0-|
A|---0---0-0-0-0--0--0---0-0-0-0--0--0---0-0-0-0--0--0---0-0-0-0--0-|
D|-----------------------------------0---0-0-0-0--0--5---5-5-5-5--5-|

e|---0----------|
B|---0----------|
G|---2----------|          END
D|---2----------|
A|---0----------|
D|---0----------|



| /  slide up
| \  slide down
| h  hammer-on
| p  pull-off
| ~  vibrato
| +  harmonic
| x  Mute note
=============================================================================
Tap to rate this tab
# A B C D E F G H I J K L M N O P Q R S T U V W X Y Z