Song name
# A B C D E F G H I J K L M N O P Q R S T U V W X Y Z

Jose Gonzalez - Deadweight On Velveteen tab

Tuning: D A D F# B E

I found this tab on a Swedish website, so the credit goes to a certain Petter S. Version 
of this tab sounds nearly identical but this is the way Jose played it when I saw him 
And I find this way a little easier to play.

Listen to the song to hear the song structure.


Intro
|----------------------------|----------------------------|
|----------------------------|----------------------0-----|
|-7------------7----7--------|-7------------7----7------7-|
|-4------------4----4--------|-4------------4----4----4---|
|(4)-----------7----6--------|(4)-----------7----6--------|
|-4--------------------------|-4--------------------------|

|----------------------------|------------------------0---|
|----------------------0-----|-----------------------0-0--|
|-7------------7----7----7---|-7------------7---7---7---7-|
|-4------------4----4-4-4-4--|-4------------4---4--4------|
|(4)-----------7----6------4-|(4)-----------7---6---------|
|-4--------------------------|-4-------------------------4|

|----------------------------|----------------------------|
|--------0-------------0-----|---------0-------------0----|
|--------0-------------0-----|---------0-------------0----|
|----11-----11-----11-----11-|-----11-----11-----11----11-|
|-9------9------9------9-----|--9------9------9------9----|
|----------------------------|----------------------------|

|----------------------------|----------------------------|
|--------0-------------0-----|---------0-------------0----|
|--------0-------------0-----|---------0-------------0----|
|----11-----11-----11-----11-|-----11-----11-----11----11-|
|-9------9------9------9-----|--9------9------9------9----|
|----------------------------|----------------------------|


                                                        x3
|-----0-------------------0--|----------------------------|
|-----0---------0---------0--|--------0-------------------|
|---------------0------------|--------0---------0---------|
|-----------11-----11--------|----11-----11-----------11--|
|--9-----9------9------9-----|-9------9------9-----9------|
|----------------------------|----------------------------|


|-----0-------------------0--|----------------------------|
|-----0---------0---------0--|-----0----------------------|
|---------------0------------|-----0-----0----------------|
|-----------11-----11--------|-----------11-----11-----11-|
|--9-----9------9------9-----|--9-----9------9------9-----|
|----------------------------|----------------------------|


Verse
|----------------------------|----------------------------|
|----------------------------|----------------------------|
|--------0-------------0-----|--------0-------------0-----|
|----11-----11-----11-----11-|----11-----11-----11-----11-|
|-9------9------9------9-----|-9------9------9------9-----|
|----------------------------|----------------------------|

(Refrain)
|--------0-------------------|--------0-------------------|
|--------0-----------0-------|--------0-----------0-------|
|-----0-----0-----0-----0----|-----0-----0-----0-----0----|
|----------------------------|----------------------------|
|--------9-----9-----0-------|--------9-----9-----0-------|
|--0-------------------------|--9-------------------------|

Deadweight on velveteen
Itīs retained emptiness
Itīs not what it seems
Uncover the mystery
Tell everyone what you see
Itīs not what it seems
Vulgar when brought to light
Betray the image
Thereīs nothing between the sheets
Itīs not what it seems
But deadweight on velveteen
Vulgar when brought to light
Vulgar the lie
Tap to rate this tab
# A B C D E F G H I J K L M N O P Q R S T U V W X Y Z