Song name
# A B C D E F G H I J K L M N O P Q R S T U V W X Y Z

Jose Gonzalez - Hints tab

Tabbed by: mr. P
email: bauertoffi@hotmail.de

Sorry, just the first part! Rest will be updated later!
Tuning:

e-b(h for germans)-f#-d-a-d

Capo on 1st fret

Main riff:

E ||--------------------------------|--------------------------------|
B ||--------------------------------|--------------------------------|
F#||--------2/3--2p--------2/3--2p--|-----2/3--2p---------2/3--2p----|
D ||--------------------------------|--------------------------------|
A ||----4---------------4-----------|--4--------------4--------------|
D ||----4---------------4-----------|--4--------------4--------------|

E ||--------------------------------|--------------------------------|
B ||--------------------------------|--------------------------------|
F#||--------2/3--2p--------2/3--2p--|-----2/3--2p---------2/3--2p----|
D ||--------------------------------|--------------------------------|
A ||--------------------------------|--------------------------------|
D ||----0---------------0-----------|--0---------------0-------------|

Note pull-off (p) and slide-up (/)! If you are not absolutly shure how to play this, 
Hints video to see how Jose makes it. (If you can't find it e-mail me!)
Tap to rate this tab
# A B C D E F G H I J K L M N O P Q R S T U V W X Y Z