Song name
# A B C D E F G H I J K L M N O P Q R S T U V W X Y Z

Jose Gonzalez - Save Your Day tab

-------------------------------------------------------------------------------
			     Save Your Day- Jose Gonzalez
-------------------------------------------------------------------------------
Tabbed by: TJB
Capo: 2nd Fret

*The high e-string needs to be left open at all times, don't let your hand rest on it.
*The 4-5-4 part is played quickly.
*There is no real "outro" for this song, he just plays around with the second and fifth 
on that final chord.

Tuning: Drop D


e|-0-----0--0--0----------0-0-0-0---0-0-0-0---0-0-0-0------0----0--0-------|
B|-2-----2--2--2----------2-2-2-2---2-2-2-2---2-2-2-2------2----2--2-------|
G|-3-----3--3--3----------3-3-3-3---3-3-3-3---3-3-3-3------3----3--3-------|
D|-0-----0----------------0-0-0h4---4-4h2-2---2-2h0-0------0---------------|
A|-0----------------------0-0-0-0---0-0-0-0---0-0-0-0------0---------------|
E|-0----------------------0-0-0-0---0-0-0-0---0-0-0-0------0---------------|

e|-0----0--0---0-0----------------0---0-0--0---0-0--0------0-0--0-0-0------|
B|-2----2--2---2-2----------------2---2-2--2---2-2--5------2-2--5-2-2------|
G|-3----3--3---3-3----------------3---3-3--3---3-3--3------3-3--3-3-3------|
D|-0----0--0---0-0-0-0-0-0-----------------0--------0-----------0-0--------|
A|-0----4--4---x-4/5\4-0-0-------------------------------------------------|
E|-0----0--0---0-0-0-0-0-2-------------------------------------------------|

| /  slide up
| \  slide down
| h  hammer-on
| p  pull-off
| ~  vibrato
| +  harmonic
| x  Mute note
============================================================================

Verse (x2)

Poke the body with a stick roll it down
Ignore the moaning as it tumbles to the ground
Be brave and save your day
These days are cold
Numbers rule I've been told
The pattern is clear better fit in the mould
Be brave and save your day
To cough up sympathy isn't hard but it costs
Hold tight to your life savings
You have to do what you must
To save your day
So poke the body and roll it down
The grave looks cold but we're still young
Tap to rate this tab
# A B C D E F G H I J K L M N O P Q R S T U V W X Y Z