Song name
# A B C D E F G H I J K L M N O P Q R S T U V W X Y Z

Jose Gonzalez - Broken Arrows tab

-----------------------------------------------------------------------------
11. Broken arrows
-----------------------------------------------------------------------------
Tabbed by: Arto Schürch
Email:     arto_schuerch@gmx.ch

Updated and final version (had something slightly wrong the first time, therefore only 4 stars...)

Drop D-Tuning

Intro, 'Verse 1' and Trumpet solo (actually throughout the whole song...)

  1   &   2   &   3   &   4   &    
e|----------------5---------------|
B|--------5---------------5-------|
G|----7-------7-------7-------7---|   :| several times
D|0-------------------------------|
A|--------------------------------|
D|--------------------------------|


'Verse 2':

  1   &   2   &   3   &   4   &    1   &   2   &   3   &   4   &
e|----------------5---------------|----------------5---------------|
B|--------5---------------5-------|--------5---------------5-------|
G|----7-------7-------7-------7---|----7-------7-------7-------7---|
D|--------------------------------|--------------------------------|
A|--------------------------------|--------------------------------|
D|0-------------------------------|8-------------------------------|

  1   &   2   &   3   &   4   &    1   &   2   &   3   &   4   &
e|----------------5---------------|----------------5---------------|
B|--------5---------------5-------|--------5---------------5-------|
G|----7-------7-------7-------7---|----7-------7-------7-------7---|   2x
D|--------------------------------|0-------------------------------|
A|--------------------------------|--------------------------------|
D|5-------------------------------|--------------------------------|

  1   &   2   &   3   &   4   &    1   &   2   &   3   &   4   &
e|----------------5---------------|----------------5---------------|
B|--------5---------------5-------|--------5---------------5-------|
G|----7-------7-------7-------7---|----7-------7-------7-------7---|
D|--------------------------------|--------------------------------|
A|--------------------------------|--------------------------------|
D|0-------------------------------|8-------------------------------|

  1   &   2   &   3   &   4   &    1   &   2   &   3   &   4   &
e|----------------5---------------|----------------5---------------|
B|--------5---------------5-------|--------5---------------5-------|
G|----7-------7-------7-------7---|----7-------7-------7-------7---|
D|--------------------------------|0-------------------------------|
A|--------------------------------|--------------------------------|
D|5-------------------------------|--------------------------------|

  1   &   2   &   3   &   4   &    1   &   2   &   3   &   4   &
e|----------------5---------------|----------------5---------------|
B|--------5---------------5-------|--------5---------------5-------|
G|----7-------7-------7-------7---|----7-------7-------7-------7---|
D|--------------------------------|0-------------------------------|
A|--------------------------------|--------------------------------|
D|0-------------------------------|--------------------------------|

  1   &   2   &   3   &   4   &    1   &   2   &   3   &   4   &
e|----------------5---------------|----------------5---------------|
B|--------5---------------5-------|5-------5---------------5-------|
G|----7-------7-------7-------7---|----7-------7-------7-------7---|
D|--------------------------------|--------------------------------|
A|--------------------------------|--------------------------------|
D|5-------------------------------|--------------------------------|


Tap to rate this tab
# A B C D E F G H I J K L M N O P Q R S T U V W X Y Z