Song name
# A B C D E F G H I J K L M N O P Q R S T U V W X Y Z

Jose Gonzalez - Cycling Trivialities tab

--------------------------------------------------------------------------------
                    CYCLING TRIVIALITIES - Jose Gonzalez
--------------------------------------------------------------------------------
Tabbed by: Tom Walter (with help from jamminjohn)
Email: josetab.20.epm [at] spamgourmet.com

Tuning: C G C G A D (Capo 4)

Thanks to jamminjohn for suggesting the alternate tuning which made a lot of
parts fit better.

NB: if you have a nylon string you can get away with tuning each string one
semitone higher than indicated, with capo on 3... not recommended for steel
strings though.

Played with triplets all the way through (as noted on 1st two bars)

The [1. [2. etc are alternate endings for the sections indicated.


Part 1 (repeats many times, the ghost notes on string 1 are mostly random)

    |--3--|  |--3--|  |--3--|  |--3--|     |--3--|  |--3--|  |--3--|  |--3--|
D|----------(0)---------------(0)------|-----------(0)---------------(0)-------|
A|-----------0-----------------0--------|-----------0-----------------0--------|
G|--------0--------0--------0--------0--|--------0--------0--------0--------0--|
C|-----2--------2--------2--------2-----|-----2--------2--------4--------4-----|
G|--------------------------------------|--------------------------------------|
C|--2-----------------2-----------------|--2----------------/4-----------------|

D|----------(0)---------------(0)-------|----------(0)---------------(0)-------|
A|-----------2-----------------2--------|-----------2-----------------2p-0-----|
G|--------0--------0--------0--------0--|--------0--------0--------0--------0--|
C|-----0--------0--------0--------0-----|-----0--------0--------0--------------|
G|--------------------------------------|--------------------------------------|
C|--0-----------------0-----------------|--0-----------------0-----------------|


Part 2 ("Who cares in a 100 years ... who'll remember all the clowns")
D|--------------------------------------|--------------------------------------|
A|-----------0-----------------0--------|-----------0-----------------0--------|
G|--------0--------0--------0--------0--|--------0--------0--------0--------0--|
C|-----0--------0--------0--------0-----|-----0--------0--------0--------0-----|
G|--5-----------------4-----------------|--2-----------------0-----------------|
C|--------------------------------------|--------------------------------------|

                                         [1. 2. 3.
D|--------------------------------------|--------------------------------------|
A|-----------0-----------------0--------|-----------0-----------------0--------|
G|--------0--------0--------0--------0--|--------0--------0--------0--------0--|
C|-----6--------0--------6--------0-----|-----6--------0--------6--------0-----|
G|--7-----------------7-----------------|--7-----------------7-----------------|
C|--------------------------------------|--------------------------------------|

[4.
D|----------------------------(0)-------|
A|-----------0--------0--------0--------|
G|--------0--------0-----------0--------|
C|-----6--------6--------6h-7--7p-6p-0--|
G|--7-----------------------------------|
C|--------------------------------------|


Part 3-A  ("So how's it gonna be ...")
D|-----------0-----------------0--------|-----------0-----------------0--------|
A|-----------0-----------------0--------|-----------0-----------------0--------|
G|--------0--------0--------0--------0--|--------0--------0--------0--------0--|
C|-----2--------2--------2--------2-----|-----2--------2--------4--------4-----|
G|--2-----------------2-----------------|--2----------------/4-----------------|
C|--2-----------------2-----------------|--2----------------/4-----------------|

                                         [1.
D|-----------0-----------------0--------|-----------0-----------------0--------|
A|-----------2-----------------2--------|-----------2-----------------2p-0-----|
G|--------0--------0--------0--------0--|--------0--------0--------0--------0--|
C|-----0--------0--------0--------0-----|-----0--------0--------0--------------|
G|--0-----------------0-----------------|--0-----------------0-----------------|
C|--0-----------------0-----------------|--0-----------------0-----------------|

[2.
D|-----------0-----0--------------------|
A|-----------2-----2--------------------|
G|--------0-----0-----------0--------0--|
C|-----0-----------------0--------4-----|
G|--0-----------------0--------4--------|
C|--0-----------------0--------4--------|

Part 3-B  ("So where is this leaving me...")
D|-----------0-----------------0--------|-----------0-----------------0--------|
A|-----------0-----------------0--------|-----------0-----------------0--------|
G|--------0--------0--------0--------0--|--------0--------0--------0--------0--|
C|-----9--------9--------9--------9-----|-----9--------9--------9--------9-----|
G|-/9-----------------9-----------------|--9-----------------9-----------------|
C|-/9-----------------9-----------------|--9-----------------9-----------------|

D|-----------0-----------------0--------|-----------0-----------------0--------|
A|-----------0-----------------0--------|-----------0-----------------0--------|
G|--------0--------0--------0--------0--|--------0--------0--------0--------0--|
C|-----4--------4--------4--------4-----|-----4--------4--------6--------6-----|
G|-\4-----------------4-----------------|--4-----------------------------------|
C|-\4-----------------4-----------------|--4----------------/6-----------------|

D|-----------0-----------------0--------|-----------0-----------------0--------|
A|-----------0-----------------0--------|-----------0-----------------0--------|
G|--------0--------0--------0--------0--|--------0--------0--------0--------0--|
C|-----2--------2--------2--------2-----|-----2--------2--------4--------4-----|
G|-\2-----------------2-----------------|--2----------------/4-----------------|
C|-\2-----------------2-----------------|--2----------------/4-----------------|


Bridge - A (x2)
D|-----------0-----------------0--------|-----------0-----------------0--------|
A|-----------2-----------------0--------|-----------2-----------------2--------|
G|--------0--------0--------0--------0--|--------0--------0--------0--------0--|
C|-----0--------0--------0--------0-----|-----0--------0--------0--------0-----|
G|--0-----------------0-----------------|--0-----------------0-----------------|
C|--0-----------------0-----------------|--0-----------------0-----------------|


Bridge - B (x2)
D|-----------0--------------------------|-----------------------------0--------|
A|-----------0-----------------0--------|-----------0-----------------0--------|
G|--------0--------0--------0--------0--|--------0--------0--------0--------0--|
C|-----4--------4--------4--------4-----|-----4--------4--------4--------4-----|
G|--------------------------------------|--------------------0-----------------|
C|--4-----------4-----2-----------2-----|--4-----------2--4--------------------|

                                         [1.
D|-----------0-----------------0--------|-----------0-----------------0--------|
A|-----------0-----------------0--------|-----------0-----------------0--------|
G|--------0--------0--------0--------0--|--------0--------0--------0--------0--|
C|-----6--------6--------6--------6-----|-----6--------6--------6--------6-----|
G|--7-----------------7-----------------|--7-----------------7-----------------|
C|--6-----------------6-----------------|--6-----------------6-----------------|

[2.
D|--------------------------------------|
A|-----------------0--------0--------0--|
G|--------0-----0--------0--------0-----|
C|-----6-----6--------7--------9--------|
G|--7-----------------------------------|
C|--6-----------------------------------|


Middle 16
D|-----------0-----------------0--------|-----------0-----------------0--------|
A|--------0--------0--------0--------0--|--------0--------0--------0--------0--|
G|-----0--------0--------0--------0-----|-----0--------0--------0--------0-----|
C|-11-------11----------------11--------|----------11----------------11--------|
G|--0-----------------0-----------------|--0-----------------0-----------0-----|
C|--0-----------------0-----------------|--0-----------------0-----------------|

D|-----------0-----------------0--------|-----------0-----------------0--------|
A|--------0--------0--------0--------0--|--------0--------0--------0--------0--|
G|-----0--------0--------0--------0-----|-----0--------0--------0--------0-----|
C|----------11----------------11--------|----------11----------------11--------|
G|--9-----------------9-----------------|--9-----------------9-----------------|
C|--9-----------------9-----------------|--9-----------------9-----------------|


Outro - A
D|-----------0-----------------0--------|-----------0-----------------0--------|
A|--------0--------0--------0--------0--|--------0--------0--------0--------0--|
G|-----0--------0--------0--------0-----|-----0--------0--------0--------------|
C|----------11--------9--------7--------|--6--------7--------6--------4p-0-----|
G|--0-----------------------------------|--------------------------------------|
C|--0-----------------------------------|--------------------------------------|

D|-----------0-----------------0--------|-----------0-----------------0--------|
A|--------0--------0--------0--------0--|--------0--------0--------0--------0--|
G|-----0--------0--------0--------0-----|-----0--------0--------0--------0-----|
C|-----------2-----------------0--------|--------------------------------------|
G|--------------------------------------|-----------4-----------------2--------|
C|--2-----------------2-----------------|--2-----------------2-----------------|


Outro - B (repeat until fade)
D|-----------2-----------------0--------|-----------0-----------------0--------|
A|--------0--------0--------0--------0--|--------2--------2--------2--0-----0--|
G|-----0--------0--------0--------0-----|-----0--------0--------0--------0-----|
C|-----------2-----------------2--------|-----------2-----------------2--------|
G|--------------------------------------|--------------------------------------|
C|--2-----------------2-----------------|--2-----------------2-----------------|




| /  slide up
| \  slide down
| h  hammer-on
| p  pull-off
| ~  vibrato
| +  harmonic
| x  Mute note
===============================================================================
Tap to rate this tab
# A B C D E F G H I J K L M N O P Q R S T U V W X Y Z