Guitaretab - guitar tabs
Song name
# A B C D E F G H I J K L M N O P Q R S T U V W X Y Z

Jose Luis Perales - Isabel tab

K pex, pues ahi les va mi tab de esta rolita que tambien es muy buen cover, a peticion
de 'jaguarsolitario', asi k espero les agrade.

             INTRO

    E D E F   F   F  F  F  D D
 ||---------------------------||
 ||---------------------------||
 ||-9-7-9-10--10--10-10-10-7-7||
 ||-9-7-9-10--10--10-10-10-7-7|| (x4)
 ||-7-5-7-8---8--8---8--8--5-5||
 ||---------------------------||

en la 3a vuelta, despues del primer F, tocas esto:

 ||---12--12-----||
 ||-13--13--13-13||
 ||--------------||
 ||--------------||
 ||--------------||
 ||--------------||

el intro son 2 vueltas a todo, y en la ultima, despues del F no regresas a D, sino k
tocas un G en el 10o traste.


Ahora, en cada estrofa, los primeros 2 veros de cada una solo se toca el bajo de la
nota muteada (por ejemplo, si es E, la 6a cuerda al aire y la muteas)

E                 F                    E         F
Tienes el pelo empapado, cuerpo de sirena
E                  F                 G
Sabes a chicle de menta, canela y coral
C5         G5    A5   F5    E       F5      (aqui ya tocas sin mutear)
  Me gusta la manera que tienes de mirar
F5         G5   C5                D5              G5pm                (pm = muteado)
  Me gusta tu melena flotando revuelta entre la arena y el mar...

 ||----------------||
 ||----------------||
 ||-7-5-7--7-7-9-7-||
 ||-7-5-7--7-7-9-7-||
 ||-5-3-5--5-5-7-5-||
 ||----------------||

E                 F                    E         F
Tienes los ojos rasgados y la piel tostada
E                  F                 G
Hueles a flor de lavanda con chispas de sal
C5         G5    A5   F5    E       F5
Me gusta la manera que tienes de bailar
F5         G5   C5                D5              G5pm
Me gusta tu melena flotando revuelta entre la arena y el mar

para el coro se toca lo mismo del intro, solo k en el primero la lira solo toca
el E-D-E, y el teclado hace el resto. La segunda vuelta ya se toca = que el intro.
[ Tab from: http://www.guitaretab.com/j/jose-luis-perales/128006.html ]
E D E
Isabel, sueño de mis sueños quiereme
E D E
Isabel,  como yo te quiero quiereme
E D E
Isabel, quiereme Isabel quiereme
E D E   F  G

E D E   F             D
Isabel, flor de limonero quiereme
E D E   F             D
Isabel, como yo te quiero quiereme
E D E   F             D
Isabel, quiereme Isabel quiereme
E D E   F             D


E                 F                    E         F
Siempre me pongo nervioso cuando estoy contigo
E                  F                 G
Hay un ciclon en mi oido, no se que decir
C5         G5    A5   F5    E       F5
Quisiera que supieras, que loco estoy por ti
F5         G5   C5                D5              G5pm
Me llevas de cabeza, bendita sirena, estoy muriendo por ti

-coro- =que el anterior.

despues va subiendo un tono en cada vuelta, esta simple, solo haces lo mismo
subiendole 2 trastes.

    E D E F   F   F  F  F  D D
 ||---------------------------||
 ||---------------------------||
 ||-9-7-9-10--10--10-10-10-7-7||
 ||-9-7-9-10--10--10-10-10-7-7|| (x4)
 ||-7-5-7-8---8--8---8--8--5-5||
 ||---------------------------||

    F# E F# G   G   G  G  G  E E
 ||-----------------------------||
 ||-----------------------------||
 ||-11-9-11-12--12--12-12-12-9-9||
 ||-11-9-11-12--12--12-12-12-9-9|| (x4)
 ||-9--7-9--10--10--10-10-10-7-7||
 ||-----------------------------||


    G# F# G# A   A   A  A  A  F# F#
 ||---------------------------------||
 ||---------------------------------||
 ||-13-11-13-14--14--14-14-14-11-11-||
 ||-13-11-13-14--14--14-14-14-11-11-|| (x4)
 ||-11-9--11-12--12--12-12-12-9--9--||
 ||---------------------------------||


    A# G# A# B   B   B  B  B  G# G#
 ||---------------------------------||
 ||---------------------------------||
 ||-15-13-15-16--16--16-16-16-13-13-||
 ||-15-13-15-16--16--16-16-16-13-13-|| (x4)
 ||-13-11-13-14--14--14-14-14-11-11-||
 ||---------------------------------||

Bueno, creo que con eso le pueden agarrar la idea y seguir con los que faltan. Solo es
subirle 2 trastes cada vez.

Y pues eso es todo. Espero k les salga y le agarren bien la onda, tal vez esta medio
enredado para explicarlo, pero si checan bien los tiempos de la cancion ya le hallan
donde va cada nota. Echenle ganas.
Related for Isabel tab