Song name
# A B C D E F G H I J K L M N O P Q R S T U V W X Y Z

Jose Palma - Lupang Hinirang tab

Lupang Hinirang - Philippine National Anthem


e|-5-4-7-5-0--7-9-10-9-7-9-5-4-7-5-0-7-9-10-9-7-5------------------------------------------|
A|-----------------------------------------------------------------------------------------|
D|-----------------------------------------------------------------------------------------|
G|-----------------------------------------------------------------------------------------|
B|-----------------------------------------------------------------------------------------|
E|-----------------------------------------------------------------------------------------|
Bayang magiliw
Perlas ng silanganan
Alab ng puso
Sa dibdib mo'y buhay 

e|-5-4-7-5-0--7-9-10-9-7-9-5-4-7-5-0-7-9-10-9-7-5------------------------------------------|
A|-----------------------------------------------------------------------------------------|
D|-----------------------------------------------------------------------------------------|
G|-----------------------------------------------------------------------------------------|
B|-----------------------------------------------------------------------------------------|
E|-----------------------------------------------------------------------------------------|
Lupang Hinirang
Duyan ka nang magiting
Sa manlulupig
Di ka pasisiil 

e|-5-4-5-77-00-77-00-9-12-14-12------------------------------------------------------------|
A|-----------------------------------------------------------------------------------------|
D|-----------------------------------------------------------------------------------------|
G|-----------------------------------------------------------------------------------------|
B|-----------------------------------------------------------------------------------------|
E|-----------------------------------------------------------------------------------------|
Sa Dagat at bundok sa simoy
At sa langit mo'y bughaw 

e|-5-4-5-77-00-77-00-9-10-9-7h9-7-5--------------------------------------------------------|
A|-----------------------------------------------------------------------------------------|
D|-----------------------------------------------------------------------------------------|
G|-----------------------------------------------------------------------------------------|
B|-----------------------------------------------------------------------------------------|
E|-----------------------------------------------------------------------------------------|
May dilag ang tula
At awit sa paglayang minamahal 

e|-5-4-5-77-00-77-00-9-12-14-12------------------------------------------------------------|
A|-----------------------------------------------------------------------------------------|
D|-----------------------------------------------------------------------------------------|
G|-----------------------------------------------------------------------------------------|
B|-----------------------------------------------------------------------------------------|
E|-----------------------------------------------------------------------------------------|
Ang kislap ng watawat mo'y tagumpay na nagniningning 

e|-5-4-5-77-00-77-00-9-10-9-7h9-7-5--------------------------------------------------------|
A|-----------------------------------------------------------------------------------------|
D|-----------------------------------------------------------------------------------------|
G|-----------------------------------------------------------------------------------------|
B|-----------------------------------------------------------------------------------------|
E|-----------------------------------------------------------------------------------------|
Ang bituin at araw niya'y kailanpama'y di magdidilim 

e|-5-4-5-1010-1212-14-12-10-12-14-15-14-12-14-10-12-9-9-10---------------------------------|
A|-----------------------------------------------------------------------------------------|
D|-----------------------------------------------------------------------------------------|
G|-----------------------------------------------------------------------------------------|
B|-----------------------------------------------------------------------------------------|
E|-----------------------------------------------------------------------------------------|
Lupa ng araw ng luwalhati't pagsinta
Buhay ay langit sa piling mo 

e|-5-4-5-1010-1212-14-12-10-12-14-15-14-12-14-10-12-9-9-10-101010--------------------------|
A|-----------------------------------------------------------------------------------------|
D|-----------------------------------------------------------------------------------------|
G|-----------------------------------------------------------------------------------------|
B|-----------------------------------------------------------------------------------------|
E|-----------------------------------------------------------------------------------------|
Aming ligaya nang pag
May mang-aapi
Ang mamatay ng dahil sayo



Tabs by: James Aeron B. Castillo
Email: jaro_8805@yahoo.com
Copyright 2013
Tap to rate this tab
 
# A B C D E F G H I J K L M N O P Q R S T U V W X Y Z